NoFX,Just The Flu.
Tabbed by Adam,[email protected]

JUST THE FLU by NOFX. Album: Ribbed (1991) 1/2
Supergreat song from NOFX again - I think this is one of the best! Two
superextraturbogreat-solos! A=wide guitar B=large guitar A&B=both guitars
:
# intro #A !palm-muted! Last time some parts non-muted >
E----------------------------------------------------------------------->
B----------------------------------------------------------------------->
G-----------------7-8-9-9---------------7-8-9-9---------------7-8-9-9--->
D---7-7-7--7-7--7-7-8-9-9-7-7-7--7-7--7-7-8-9-9-7-7-7--7-7--7-7-8-9-9--->
A---7-7-7--7-7--7-5-6-7-7-7-7-7--7-7--7-5-6-7-7-7-7-7--7-7--7-5-6-7-7--->
E---5-5-5--5-5--5---------5-5-5--5-5--5---------5-5-5--5-5--5----------->
# intro #B !palm-muted! >
E----------------------------------------------------------------------->
B----------------------------------------------------------------------->
G----------------------------------------------------------------------->
D-------7-------7-------------7-------7-------------7-------7----------->
A-----------------5-6-7-7---------------5-6-7-7---------------5-6-7-7--->
E---5-5----5-5------------5-5----5-5------------5-5----5-5-------------->
>introA
>------------------------|
>------------------------|
>------------------------|
>--10-10-10-10-9-9-9-9---|
>--10-10-10-10-9-9-9-9---|
>---8--8--8--8-7-7-7-7---|
>introB
>------------------------|
>------------------------|
>------------------------|
>------------------------|
>--------10--------9-----|
>---8--8-----8-7-7---7---|
:
# end-intro #A palm-muted! GuitarB is quiet.
E-----------|
B-----------| (Nothing... nothing...)
G----*---*--|
D---7--10---| *=play 10-16X
A---7--10---|
E---5---8---|
:
# solo-background# *=play 6X
E--------------------------------------------------------------------------|
B-----------------------*-----------------------------------*--------------|
G-----*---------------10----------------------------12-11--9---------------|
D----7----------------10----------------10-10-10-10-12-11--9---------------|
A----7-----------------8----------------10-10-10-10-10--9--7---------------|
E----5-----------------------------------8--8--8--8------------------------|
# solo #B h=hammer-on
E---10h12-12-10h12-12-10h12-12-10h12-12-12-10------------------------------|
B---------------------------------------------12-11-12-10------------------|
G---------------------------------------------------------11-9-8-7---------|
D------------------------------------------------------------------9-8-7---|
A--------------------------------------------------------------------------|
E--------------------------------------------------------------------------|
:
# verse #A&B X4 *=play 7X # chorus #A&B X2 *=play 12X
E--------------------| E-------------------|
B------------*----*--| B------------*------|
G----*---*--5---12---| G----*---*--5----*--|
D---7---3---5---12---| D---7---3---5---5---|
A---7---3---3---10---| A---7---3---3---5---|
E---5---1------------| E---5---1-------3---|
:
>>>>>>>>>>>to next page...
:
:
:
JUST THE FLU 2/2
:
# bridge #A&B X3
E---------------------------------|
B---------------------------------|
G---------------------------------|
D---7-7--5-8-8--7--10--8-7-7--7---|
A---7-7--5-8-8--7--10--8-7-7--7---|
E---5-5--3-6-6--5---8--6-5-5--5---|
:
# solo2-background #A *=play 5-6X =slide down
E-------------------------------------------------------------------------|
B----*------------------------------------------*-------------------------|
G--10---------------------*----------------10--9------------10-10-10------|
D--10-------------------10-----------------10--9------------10-10-10-10--|
A---8-------------------10------------------8--7-------------8--8--8-10--|
E------------------------8--------------------------------------------8--|
# solo2 #B =slide down
E------------------------8-7----------------------------------------------|
B-----------------8----------10-8--------10-8------------------------10--|
G----------7-9-10---9-------------10-9-7------10-9-7-10-9-7----7-9--------|
D---7-9-10------------10------------------------------------10-----7------|
A-------------------------------------------------------------------------|
E-------------------------------------------------------------------------|
:
Play verseA&B and chorusA&BX1 (end with first chord).
Raw!
Tabbed by Jussi Heinonen 22.12.1997




Ваше мнение



Капча