JOHNNY APPLESEED by NOFX. Album : White trash, two heebs and a bean
A=Melvin B=El Hefe A&B=both
:
# intro #A&B
E---2-------7-------5-------5-------2-------7--7---|
B---2-------7-------7-------6-------2-------7--7---|
G---2-------8-------7-------7-------2-------8--8---|
D---4-------9-------7-------7-------4-------9--9---|
A---4-------9-------5-------5-------4-------9--9---|
E---2-------7-----------------------2-------7--7---|
:
# intro2 #B GuitarA stays quiet
E-----------------------------------------------------|
B-----------------------------------------------------|
G---------------------------------------9-------------|
D-------------------------------------7---7-9-7---7---| >>> straight to verse!
A---0-3/5-5-5-5-5-5-5-5-5-5-5-5-5-5-5-----------9-----|
E-----------------------------------------------------|
:
# verse #A X6 *=play chord above 10X
E---9---------------------------7--------------------------------10--->
B--10---------------------------7--------------------------------10--->
G--------------------------------------------------------------------->
D---*---------------------------*---------------------------------*--->
A--------------------------------------------------------------------->
E--------------------------------------------------------------------->
# verse #B X6 >
E--------------------------------------------------------------------->
B--------------------------------------------------------------------->
G-----------------9---------------------------9----------------------->
D---7-----------7---7-9-7---7-7/9-----------7---7-9-7---7-9-7-----7--->
A-------------------------9---------------------------9-------9-7----->
E--------------------------------------------------------------------->
>verseA
>-------------------------5---------------------|
>-------------------------5---------------------|
>-----------------------------------------------|
>-------------------------*---------------------|
>-----------------------------------------------|
>-----------------------------------------------|
>verseB
>-----------------------------------------------|
>-----------------------------------------------|
>-----9---------------------------9-------------|
>---7---7-9-7---7-9-7-----------7---7-9-7---7---|
>-------------9-------9-7-0---------------9-----|
>-----------------------------------------------|
:
# chorus #A&B X2 *=play 14X # bridge #B GuitarA is quiet
E-------------------------| E-------------------|
B----*-----------*--------| B-------------------|
G--11------*----7------*--| G-----9-------------|
D--11-----9-----7-----7---| D---7---7-9-7---7---|
A---9-----9-----5-----7---| A-------------9-----|
E---------7-----------5---| E-------------------|
:
Then play verseAX3 or verseBX3, chorusA&B and bridgeB.
2/2
:
# outro #A X6 *=play chord above 10X > >
E---9---------------------------7--------------------------------10--->
B--10---------------------------7--------------------------------10--->
G--------------------------------------------------------------------->
D---*---------------------------*---------------------------------*--->
A--------------------------------------------------------------------->
E--------------------------------------------------------------------->
# outro #B X6 >
E--------------------------------------------------------------------->
B--------------------------------------------------------------------->
G-----------------9---------------------------9----------------------->
D---7-----------7---7-9-7---7-7/9-----------7---7-9-7---7-9-7-----7--->
A-------------------------9---------------------------9-------9-7----->
E--------------------------------------------------------------------->
>outroA
>-----------------------5-5---|
>-----------------------5-5---|
>-----------------------------|
>-----------------------------|
>-----------------------------|
>-----------------------------|
>outroB
>-----------------------------|
>-----------------------------|
>-----9-----------6-----------|
>---7---7-9-7---7---9-7---7---|
>-------------9---------9-----|
>-----------------------------|
:
Tabbed by Freddy Allen 14/06/04




Ваше мнение



Капча