m: "brian hinze"
Subject: n/nofx/jeff_wears_birkenstocks.tab
Date: Wed, 6 May 1998 15:57:50

NOFX-Jeff Wears Birkenstocks
album: punk in drublic
correction on [email protected] done by brian hinze
[email protected]

2 guitars-FAST AND JAZZY
(listen to song for strumming
and timing)

E--------3-----------------
B--------3----------------3
G-2-4-2--4—2-4-2---2-0-2---
D-0-0-0--5-0-0-0---^fill---
A--------5-----------------
E--------3-----------------

E----------3-2-3-2------------------3
B---------^fill------------------3--3
G-2-4-2------------2-4-2---2-0-2----4
D-0-0-0------------0-0-0------------5
A-----------------------------------5
E-----------------------------------3

verse:
E---------------------------------------
B---------------------------------------
G--7------------------------------------
D--7—-9/7/9/7--5-------------7----------
A--5--5-5-5-5--5—-7/5/7/5----7—-9/7/9/7-
E--------------3--3-3-3-3----5--5-------
don’t wanna chill, don’t...sit..etc.

fill between verses(this fast and hard to play)
I INCLUDED THE PICKING FOR THIS PART

E--------------------------------
B--------------------------------
G-7-------------------7----------
D-7-4-4-4-2-5-5-5-4-2-7-9/7/9/9--
A-5-5-5-5-3-5-5-5-5-3-5-5-5-5-5--
E---------------------^----------
(_____begin verse 2)

the chorus is power-chords D G D G D C G




Ваше мнение



Капча