Standard Tuning: E A D G
BPM:about a million...(900)
Riff 1:
G|----7----9--7---9---7---7---9---6---6----6--|
D|--77--77--77--77--77--77--77--77--77--77----|
A|--------------------------------------------|
E|--------------------------------------------|
Riff 2:
G|--------------------------------------------------------------------------------------------|
D|4444444444444444---0000000000000000---------------------------------------------------------|
A|-------------------------------------4444444444444444----2222222222222222---0000000000000000|
E|--------------------------------------------------------------------------------------------|
Riff 3:
G|----4---4---4---4---4---4---4---4--|
D|-----------------------------------|
A|--2---2---2---2---2---2---2---2----|
E|-----------------------------------|
Interlude:
G|----7---9---7---9---7---7---9---7----9--|
D|--77--77--77--77--77--77--77--77--77----|
A|----------------------------------------|
E|----------------------------------------|
Riff 5:
G|------------------------------------------------------------------------->
D|4444444444444444---0000000000000000-------------------------------------->
A|-------------------------------------4444444444444444---2222222222222222->
E|------------------------------------------------------------------------->
->----------------------------------------------------------------|
->----------------------------------------------------------------|
->--0000000000000000----22222222222222222---00000000000000000--5/9|
->----------------------------------------------------------------|
Riff 6:
G|---------------------------------------------------------------------------|
D|--------------------0000000000000000---------------------------------------|
A|--9999999999999999--------------------4444444444444444---0000000000000000--|
E|---------------------------------------------------------------------------|
G|-----------------------------------------------------------|
D|--4444444444444444---0000000000000000----------------------|
A|---------------------------------------4444444444444444-0--|
E|-----------------------------------------------------------|
Second Interlude:
G|--------------|
D|--2--4--2--4--|
A|--------------|
E|--------------|
Outro:
G|-----------------------------------------------------------------------|
D|--3333333333333333---0000000000000000----------------------------------|
A|--------------------------------------0000000000000000000000000000000--|
E|-----------------------------------------------------------------------|
Downloaded from www.taborama.com
================================================================================




Ваше мнение



Капча