From: [email protected] (Sam Stauffer)
**********************************
TAB: I want to br your baby - NOFX
**********************************
Tuning: E
B
G
D
A
D Drop low E whole step
___ ___ ___ ___
| | | | | | | |
:-------------------:
:-------------------:
:*-----------------*:
:*-----------------*:
:--4-4-5-5-5-5-7-7--:
:--4-4-5-5-5-5-7-7--:
___ ___ ___ ___
| | | | | | | |
:---:-------------------:
:---:-------------------:
:---:*-----------------*:
:---:*-----------------*:
:-4-:--2-3-4-4-2-3-4-4--:
:-4-:--2-3-4-4-2-3-4-4--:
:-------------------:
:-------------------:
:*-----------------*:
:*-4-4-2-2-5-5-4-4-*:
:-------------------:
:-------------------:
------------- Vocals ------------
Open yourself let me inside
Open you arms I have no where
To go so let me into to you
I need to be where nothing can hurt me
Open your legs to let me crawl
Inside of you I need to be
Inside you wont so take me home
Inside of you and (balame)? I'm home
(Begemegal)?
(Begemegal)?
I wana be your baby (Begemegal)?
(Begemigal)?
(Begemigal)?
I wana be your baby (Begemegal)?
Open your legs and take me in
I need to be inside within
Let me become apart of you
Let me inside of you swallow me home
I wana know the things you hide
I wana feal the things you feal
I wana breath the air you breath
I wana live inside of you take me
(Begemegal)?
(Begemegal)?
I wana be your baby (Begemegal)?
(Begemigal)?
(Begemigal)?
I wana be your baby (Begemegal)?
Let me live inside
Let me live inside
Let me live inside
Let me live inside




Ваше мнение



Капча