Great song, after u get the hang of it.
Guitar 1 = 1 Guitar 2 = 2 Guitar 1 & 2 = Both Bass=B
Intro 1 Intro 2 Intro B
E-------------------------|----------------------------|
B-------------------------|----------------------------|
G-------------------------|----5-----5-----5-----5-----|--5---4---2---4--
D-5-----6-----------5-----|----------------------------|--5---4---2---4--
A-3-----2-----0-----2-----|----------------------------|--3---2---0---2--
E-------------------------|----------------------------|-----------------
Verse Both Verse B
E--------------------------------------------|
B—p.m........................................|
G--------------------------------------------|-5>-7>-9>-5>--5>--7>---
D--3------5-------7-------3------5-----5-----|-3>-5>-7>-3>-(2>)------
A--3------5-------7-------3------3-----5-----|--------------3>--5>---
E--1------3-------5-------1------3-----------|-----------------------
Chorus 1 Chorus 2 Chorus B
E-------------------------------|-----------------------------|
B-------------------------------|-----------------------------|
G-------------10--12--10--10----|--5---------10--12--10--10---|------------------------
D--10---------10--12--10--10----|--5---8--7--10--12--10--10---|----------3>--5>-3>-3>--
A--10--10--8--8---10--8---8-----|--3---8--7--8---10--8---8----|-3>-2>-0>---------------
E--8---6---5--------------------|------6--5-------------------|------------------------
2nd Verse 1
E----------------------------------------------------------------------------------
B------------------------------------(x4)------------------------------------------
G--5--pick---16-----1412----/14-1412141214121412-12-10-9-(/16)--12--10--7---/16----
D-----slide------------------------------------------------------------------------
A------------14-----1210-------------------------10--8-7--------10---8--5---/14----
E----------------------------------------------------------------------------------
2nd Verse 2 2nd Verse B
E-------------------------------------------|
B—p.m....................................---|
G-------------------------------------------|-------------------------
D--3------5-------7-------3------5-----5----|-------------------------
A--3------5-------7-------3------3-----5----|-------------8>-----10>--
E--1------3-------5-------1------3----------|-1>--3>--5>------8>------
Bridge 1
E-------------------------------------------------------------
B-------------------------------------------------------------
G-7-------5---10-9-7--5--------7-------7-------10-------/12---
D-7---3---5---------------------------------------------------
A-5---3---3---8--7-5--3--------5-------5-------8--------------
E-----1-------------------------------------------------------
Bridge 2 Bridge B
E-------------------------------------------------|
B-------------------------------------------------|
G-7-------5---5---10-------12---12---7------5-----|----------------------------------------------
D-7---3---5---5---10--10---12---12---7------5-----|--------------3-2-0---------------------------
A-5---3---3---2---8---10---10---10---5------3-----|--5>------3>---------3>-----5>-----5>---------
E-----1---------------8---------------------------|------1>---------------------------------1>---
Outro 1
E-----------------------------------------------------------------------------------
B-----------------------------------------------------------------------------------
G-5---------------4-----------3-----------------------------------------------------
D-5-----------x4--4-----------3------------7-----------6-----------5----------------
A-3--5--7--8------2--5--7--8--1--5--7--8---7--5--7--8--6--5--6--8--5--5--7--8--10---
E------------------------------------------5-----------4-----------3----------------
Outro 2 Outro B
E-------------------------------------|
B-------------------------------------|
G-5-------------------3---------------|---------------------------------------
D-5---7---3---2---4---3---7---6---2---|---------------------------------------
A-3---7---3---3---2---1---7---6---3---|-3>---------3>--2>--1>--0>-------------
E-----5---1---3---2-------5---4---3---|-----5>--1>----------------4>--3>--3---
Song Order:
Intro
Verse
Chorus
Intro
Verse (2nd)
Chorus
Bridge
Chorus
Outro




Ваше мнение



Капча