From: [email protected] (Terry Lamb)
To: [email protected]
Subject: BTA
Date: Sat, 21 Dec


Here's Stickin In My Eye by NOFX

This is the guitar part at the beginning
--10--9---10--7--6-------------------------------------
--12--10--10--8--7-------------------------------------
-------------------------------------------------------
-------------------------------------------------------

Riff 1
-------------------------------------------------------
-------------------------------------------------------
-------------------------------------------------------
----3--3--3--5--6--5--3---repeat 2x--3--3--2--2--------

Riff 2
-------------------------------------------------------
-------------------------------------------------------
--------5--5--3--3--1--1-------------------------------
--3--3-------------------------------------------------
Lookin through the camera...

It's not totally right but it's close
Fat Rob
[email protected]




Ваше мнение



Капча