Date: Fri, 4 Aug 1995 15:20:42 -0600 (MDT)
From: Jeff Mutt
Subject: Green Corn by NOFX
okay... this is just the intro cause for some reason I just can't figure
out the rest of the song...oh ...and the outro
e-|------------------------------------------
B-|------------------------------------------
G-|-------10-11-11-11--14-12-14-7-5--7-5---5-
D-|-11-10-10-11-11-11--14-12-14-7-5--7-5-7-5-
A-|-11-10--8--9--9--9--12-10-12-5-3--5-3-7-3-
E-|--9--8--------------------------------5---
e-|---------------------------------------
B-|---------------------------------------
G-|-14-12-14--7-5-7-5---9-10-9-5--5-5-5---
D-|-14-12-14--7-5-7-5-7-9-10-9-5--5-5-5-7-
A-|-12-10-12--5-3-5-3-7-7--8-7-3--3-3-3-7-(let ring)
E-|-------------------5-----------------5-
e-|-----------------------------------------------------------------
B-|-----------------------------------------------------------------
G-|-------------5-2-------------------------------------------------
D-|-3-2-3-3-3-3-5-2---3-2-3-3-3-3--7-7-7-7--5-5-5-5-2-2-2-2-2-2-2-2-
A-|-3-2-3-3-3-3-3-0---3-2-3-3-3-3--7-7-7-7--5-5-5-5-2-2-2-2-2-2-2-2-
E-|-1-0-1-1-1-1-------1-0-1-1-1-1--5-5-5-5--3-3-3-3-0-0-0-0-0-0-0-0-
someone please figure out the verse for me...
okay... they play the first half of the intro in the middle of the song
exept they add one chord but I'll tab it out for you anyway...
e-|-----------------------------------------------------------
B-|-----------------------------------------------------------
G-|-14-12-14-7-5-7-5---5-14-12-14-7-5-7-5---9-10-9-7-5--5-5-5-
D-|-14-12-14-7-5-7-5-7-5-14-12-14-7-5-7-5-7-9-10-9-7-5--5-5-5-
A-|-12-10-12-5-3-5-3-7-3-12-10-12-5-3-5-3-7-7--8-7-5-3--3-3-3-
E-|------------------5--------------------5-------------------
heres the ending part
e-|----------------------------------------------------------------
B-|----------------------------------------------------------------
G-|-14-12-14-7-5--14-12-14-7-5---14-12-14-7-5-7-5------------------
D-|-14-12-14-7-5--14-12-14-7-5---14-12-14-7-5-7-5-7----------------
A-|-12-10-12-5-3--12-10-12-5-3---12-10-12-5-3-5-3-7----------------
E-|-----------------------------------------------5----------------
okay... I'm not sure if I was tuned in the right key when I figured this
out but oh well... but I'd be really happy if someone figured out the
rest of the song and posted it on here... or e-mailed it to me...
[email protected]




Ваше мнение



Капча