Song: Gonoherpasyphilaids
Band: Nofx
Album: Ribbed
Tabbed by: Marco Argenton
Intro:
G:---------------------------------------------------------------
D:---------------------------------------------------------------
A:----5-5-7-7-7---5-5-7-7-7---5-5-7-7-7--------------------------
E:-5-5---------5-5---------5-5----------------------------------- First and second verse:
G:---------------------------------------------------------------
D:---------------------------------------------------------------
A:---------------------------------5-5-5-5-5-2-2-2-2-2-2-2-4-5-5-5
E:--5-5-5-5-5-5-5-5-5-5-5-5-5-5-5-5--------------------------------- Bridge:
G:---------------------------------------------------------------
D:---------------------------------------------------------------
A:-3-3-3-3-3-8-8-8-8-8-8-8-3-3-3-3-3-8-8-8-8-8-8-8-8-------------
E:--------------------------------------------------------------- Last verse:
G:---------------------------------------------------------------
D:---------------------------------------------------------------
A:----------------------------------5-5-5-5-5-5-7-7-7-7-7-7-----------------
E:--5-5-5-5-5-5-5-5-5-5-5-5-5-5-5-5------------------------7-7-7-7-7-7-10-10-10-10-10----------
G:---------------------------------------------------------------
D:---------------------------------------------------------------
A:--0--0--0--0--0-----------------------------------------------------
E:--------------------------------------------------------------- Ending
G:-----------------------------------------------------------------------------
D:-----------------------------------------------------------------------------
A:------5-5-7-7-7-7-----7-7-5-5-7-7-12------------------------------------------
E:--5-5-------------5-5--------------------------------------------------------




Ваше мнение



Капча