#----------------------------------PLEASE NOTE--------------------------------#
#This file is the author's own work and represents their interpretation of the#
#song. You may only use this file for private study, scholarship, or research.#
#-----------------------------------------------------------------------------#
#-- File created with Instab - http://www.pconline.com/~smcarey/instab.html --#
#-----------------------------------------------------------------------------#
Author/Artist: nofx
Title: glass war
Album: warped tour 2003
Transcribed by: paul
Email: [email protected]
you can do the bass intro 2 ways
(ill tab both - see what you think) they both sound the same just easier to play
-|--------------------------|----22----22----22--------|---------------------
-|-00-77----77----77-0---3-0|-00----33----22----0---3-0|---------------------
-|-------88----77------0----|---------------------0----|---------------------
-|--------------------------|--------------------------|---------------------
bass intro bass intro 2nd version
-|---------------|-------------------|---------------------------------------
-|---------------|-------------------|---------------------------------------
-|---------------|--7----77----------|---------------------------------------
-|----5^---------|--7----77---(feedback+handling noise)----------------------
-|-5^------------|--5----55----------|---------------------------------------
-|---------------|-------------------|---------------------------------------

-|--------------------|-------------------------|---------------------|------
-|--------------------|-------------------------|---------------------|------
-|--------------------|-------------------------|---------------------|------
-|--------------------|-------7-----7-----7-----|---------------------|------
-|-5555-8888-7777-----|---000---888---777-------|----55555555555555555|------
-|----------------8888|---------------------8888|---------------------|------
(bass) gtr1 (palm muted) gtr 2 muted
-|-----------------------------------------------------------------|---------
-|-----------------------------------------------------------------|---------
-|--7777--10101010--9999------------7777--10101010--9999-/-17171717|---------
-|--7777--10101010--9999--10101010--7777--10101010--9999-/-17171717|---------
-|--5555---8-8-8-8--7777--10101010--5555---8-8-8-8--7777-/-15151515|---------
-|-------------------------8-8-8-8---------------------------------|---------
chorus
-|---|----10---|---1010----1010----99----99-|--------------------|---------|-
-|---|---------|----------------------------|--------------------|---------|-
-|--7|-777--777|77------77------77----77----|--7-7-5---5-7-5---5-|-77777777|-
-|---|---------|----------------------------|--------7-------7---|---------|-
xlots|---------|----------------------------|--------------------|---------|-
-|---|---------|----------------------------|--------------------|---------|-
gtr kinda solo figure out the rhythm and some notes. its all there though
-|---------------------------|-----------------------------------------------
-|---------------------------|-----------------------------------------------
-|-7--------10---------------|-----------------------------------------------
-|-7-x16----10x16--10-----7--|-----------------------------------------------
-|-5---------8-----10x16--7x16--|--------------------------------------------
-|------------------8-----5--|-----------------------------------------------
palm muted




Ваше мнение



Капча