Here are the tabs for the cover of Gin and Juice by NOFX
Bad ass song
e--3-3--3-3--5-5--1-1-------
B--5-5--3-3--5-5--1-1-------
D--5-5--4-4--5-5--2-2-------
G-------5-5-------3-3-------
A---------------------------
E---------------------------
This of course is played with ska strokes
repeats it self the whole song, heh, and so does the bass line which i shall include also
G-------------------------------------
D-----2-------------------------------
A-3-3---3-----2-------7-------0-2-----
E---------3-3---3-5-5---5-1-1---------
REPEAT that over and over with the chords thats basically the whole song.


Ваше мнение



Капча