t. See http://www.olga.net/faq/ for more information. #
From: [email protected]
Date: Thu, 24 Feb 2000 16:44:18 -0500
Subject: n/nofx/gasoline.tab
NOFX - We threw Gasoline on the Fire and Now we have Stumps for Arms
And No Legs
From Punkorama III
Intro (bass)
A D D A
Intro (guitar I) X 4
|----------------------
|----------------------
|-2---7--7--7-2-2------
|-2---7--7--7-2-2------
|-0---5--5--5-0-0------
|----------------------
Intro (lead guitar) X 4
|----------------------
|----------------------
|-9--7-7--6------------ end on |--9-------------------
|---------------------- |----------------------
|-7--5-5--4------------ |--7-------------------
|---------------------- |----------------------

Verse (both)
part A
|------------------------
|------------------------
|----------------5-5-----
|-7-7--5-5--3-3--5-5--5--
|-7-7--5-5--3-3--3-3--5--
|-5-5--3-3--1-1-------3--
part B
------------------------------
------------------------------
-5-5--3-3---------------5-----
-5-5--3-3--5-5--3-3--5--5-----
-3-3--1-1--5-5--3-3--5--3-----
-----------3-3--1-1--3--------
second time
-------------------------------
-------------------------------
-5-5--3-3----------------------
-5-5--3-3--5-5--3-3--5-3-5-----
-3-3--1-1--5-5--3-3--5-3-4-----
-----------3-3--1-1--3-1-3-----

Verse (lead)
part A
|------------------------------
|------------------------------
|-14-14--16-14-17-16-----------
|------------------------------
|-12-12--14-14-15-14-----------
|------------------------------
part B
|------------------------------
|------------------------------
|-12--10--7--9-----------------
|------------------------------
|-10--8---5--7-----------------
|------------------------------
chorus (both)
|-----------------------------------
|-----------------------------------
|-5-3---5---5--------------------5--
|-5-3-3-5---5-5-3-7--3-5-7---3-5-5--
|-3-1-3-3---3-5-3-7--3-5-7---3-5-3--
|-----1-------3-1-5--1-3-5---1-3----
Lead fill
|------------------------------
|------------------------------
|------------------------------
|------------------------------
|------7-8---------------------
|-8-10-----10-8-10-------------
Bridge (both)
|---------------------------------------------------------------- |
|---------------------------------------------------------------- |
|-5-5-xxxx-----------xxxx-------5-5-xxxx-------------------------*|
|-5-5-xxxx-5-5-5-3-3-xxxx-3-3-5-5-5-xxxx-5-5-3-3-5--3-3-5-5------*|
|-3-3-xxxx-5-5-5-3-3-xxxx-3-3-5-3-3-xxxx-5-5-3-3-5--3-3-5-5------ |
|----------3-3-3-1-1-xxxx-1-1-3----------3-3-1-1-3--1-1-3-3------ |
After this, just play the chorus plam muted.
The End
All work done by Matt Pettineo




Ваше мнение



Капча