FREEDUMB-NOFX
By:Stash Fortier ([email protected])
INTRO
e|--------------------------------------------------------------------|
B|--------------------------------------------------------------------|
G|---3-------3--------------------------------------------------------|
D|-2-3-5---2-3-5------------------------------------------------------|
A|-2-1-5---2-1-5------------------------------------------------------|
E|-0---3---0---3------------------------------------------------------|

VERSE 1
e|--------------------------------------------------------------------|
B|--------------------------------------------------------------------|
G|---3-------3-------3-------3----------------------------------------|
D|-2-3-5---2-3-5---2-3-5---2-3-5--------------------------------------|
A|-2-1-5---2-1-5---2-1-5---2-1-5--------------------------------------|
E|-0---3---0---3---0---3---0---3--------------------------------------|
CHORUS
e|--------------------------------------------------------------------|
B|--------------------------------------------------------------------|
G|-9---7-9-7-9-7----5-4-5----9----7-9-7-9-7----5-4-12-----------------|
D|-9---7-9-7-9-7----3-2-3----9----7-9-7-9-7----3-2-10-----------------|
A|-7---5-7-5-7-5-------------7----5-7-5-7-5---------------------------|
E|--------------------------------------------------------------------|
VERSE 2 (repeat twice)
e|--------------------------------------------------------------------|
B|--------------------------------------------------------------------|
G|-----------3-3-3-3------------------------3-3-3-3-------------------|
D|-2-2-2-2---3-3-3-3---5-5-5-5----2-2-2-2---3-3-3-3----5-5-5-5--------|
A|-2-2-2-2---1-1-1-1---5-5-5-5----2-2-2-2---1-1-1-1----5-5-5-5--------|
E|-0-0-0-0-------------3-3-3-3----0-0-0-0--------------3-3-3-3--------|REPEAT CHORUS
EMD RIFF
e|--------------------------------------------------------------------|
B|--------------------------------------------------------------------|
G|--------------------------------------------------------------------|
D|-2-----2--2--2-2---LET RING-----------------------------------------|
A|-2-----2--2--2-2----------------------------------------------------|
E|-0-----0--0--0-0----------------------------------------------------|
LYRICS
Dont even try to tell us
What we can and cannot say
profanity^Тs a tool that
you cannot take away
is freedom of expression
just a wad of shit?
Just another farsce in
american [email protected]


Ваше мнение



Капча