FREEDOM LIKE A SHOPPING CART - NOFX

BY:JONNY APPLESEED

RYTHYM NOT TABBED

INTRO PART1:
GUITAR 1: X5
e|--------------------------------------------------------------------------|
B|--------------------------------------------------------------------------|
G|9-9-9-7-7-7-5-5-5--9-9-9-7-7-7-9-9-9--7-7-7-5-5-5-4-4-4--5-5-5-4-4-4------|
D|X-X-X-X-X-X-X-X-X--X-X-X-X-X-X-X-X-X--X-X-X-X-X-X-X-X-X--X-X-X-X-X-X-7-7-7|
A|7-7-7-5-5-5-3-3-3--7-7-7-5-5-5-7-7-7--5-5-5-3-3-3-2-2-2--3-3-3-2-2-2-X-X-X|
E|---------------------------------------------------------------------5-5-5|

GUITAR 2: X2: STARTS ON GUITAR 1'S 3RD TIME THROUGH
e|--5---3---3---5--|
B|--5---3---3---5--|
G|--5---5---3---5--|
D|--7---5---5---7--|
A|--7---3---5---7--|
E|--5-------3---5--|

e|--------------------------------------------------------------------------|
B|--------------------------------------------------------------------------|
G|14-14-14-14-12-12-12-12-12-12-17-17-16-16-14-14-14-14-12-12-12-12-12-13-13|
D|-X--X--X--X--X--X--X--X--X--X--X--X--X--X--X--X--X--X--X--X--X--X--X--X--X|
A|12-12-12-12-10-10-10-10-10-10-15-15-14-14-12-12-12-12-10-10-10-10-10-11-11|
E|--------------------------------------------------------------------------|

VERSE 1:GUITAR 1:
e|------------|
B|------------|
G|-14--13--11-|
D|--X---X---X-|
A|-12--11---9-|
E|------------|

CHORUS 1:
GUITAR 1&2: X2
e|-----------------------------------------|
B|-----------------------------------------|
G|-------------------------------7-7-7-7-7-|
D|-7-7-7-7-7-2-2-2-2-2-5-5-5-5-5-7-7-7-7-7-|
A|-7-7-7-7-7-2-2-2-2-2-5-5-5-5-5-5-5-5-5-5-|
E|-5-5-5-5-5-0-0-0-0-0-3-3-3-3-3-----------|

VERSE 2:PART 1:
GUITAR 1&2:
e|-----------------------------------------|
B|-[-----PALM-MUTE---------PALM-MUTE-----]-|
G|-----------6-6-6-6-6-7-7-7-7-7-4-4-4-4-4-|
D|-7-7-7-7-7-6-6-6-6-6-7-7-7-7-7-4-4-4-4-4-|
A|-7-7-7-7-7-4-4-4-4-4-5-5-5-5-5-2-2-2-2-2-|
E|-5-5-5-5-5-------------------------------|

:PART 2:
GUITAR 1: GUITAR2:
e|-----------------------------------------|e|------------|
B|-[-----PALM-MUTE---------PALM-MUTE-----]-|B|------------|
G|-----------6-6-6-6-6-7-7-7-7-7-4-4-4-4-4-|G|-14--13--11-|
D|-7-7-7-7-7-6-6-6-6-6-7-7-7-7-7-4-4-4-4-4-|D|--X---X---X-|
A|-7-7-7-7-7-4-4-4-4-4-5-5-5-5-5-2-2-2-2-2-|A|-12--11---9-|
E|-5-5-5-5-5-------------------------------|E|------------|

CHORUS 2:
GUITAR 1&2: X2
e|-----------------------------------------|
B|-----------------------------------------|
G|-------------------------------7-7-7-7-7-|
D|-7-7-7-7-7-2-2-2-2-2-5-5-5-5-5-7-7-7-7-7-|
A|-7-7-7-7-7-2-2-2-2-2-5-5-5-5-5-5-5-5-5-5-|
E|-5-5-5-5-5-0-0-0-0-0-3-3-3-3-3-----------|

BRIDGE:
GUITAR 1&2
e|-----------------------------------------------------------------|
B|-----------------------------------------------------------------|
G|-------------------------6-6-6-6-7-7-7-7-----------------7-7-7-7-|
D|-7-7-7-7-2-2-2-2-4-4-4-4-6-6-6-6-7-7-7-7-7-7-7-7-9-9-9-9-7-7-7-7-|
A|-7-7-7-7-2-2-2-2-4-4-4-4-4-4-4-4-5-5-5-5-7-7-7-7-9-9-9-9-5-5-5-5-|
E|-5-5-5-5-0-0-0-0-2-2-2-2-----------------5-5-5-5-7-7-7-7---------|

PART 2:
GUITAR 1: X2
e|-------------------------------------------------|
B|-----------------------------------------[--PM--]|
G|--[-PM-]-----[-PM--]---[-PM-]----[-PM-]--7-7-7-7-|
D|-7-7-7-7-7-7-2-2-2-2-4-4-4-4-4-4-4-4-4-4-7-7-7-7-|
A|-7-7-7-7-7-7-2-2-2-2-4-4-4-4-4-4-4-4-4-4-5-5-5-5-|
E|-5-5-5-5-5-5-0-0-0-0-2-2-2-2-2-2-2-2-2-2---------|

PART 3:
GUITAR 1:
e|--------------------------------------------------|
B|--------------------------------------------------|
G|------------------------------------------7-7-7-7-|
D|--7-7-7-7-7-7-2-2-2-2-4-4-4-4-4-4-4-4-4-4-7-7-7-7-|
A|--7-7-7-7-7-7-2-2-2-2-4-4-4-4-4-4-4-4-4-4-5-5-5-5-|
E|--5-5-5-5-5-5-0-0-0-0-2-2-2-2-2-2-2-2-2-2---------|

GUITAR 2:
e|-----------------------------------------------------|
B|-----------------------------------------------------|
G|-18-18-18-18-18-9-9-10-10-15-15-15-15-15-13-13-14-14-|
D|--X--X--X--X--X-X-X--X--X--X--X--X--X--X--X--X--X--X-|
A|-16-16-16-16-16-7-7--8--8-13-13-13-13-13-11-11-12-12-|
E|-----------------------------------------------------|

VERSE 3:
GUITAR 1&2:
e|-----------------------------------------|
B|-[-----PALM-MUTE---------PALM-MUTE-----]-|
G|-----------6-6-6-6-6-7-7-7-7-7-4-4-4-4-4-|
D|-7-7-7-7-7-6-6-6-6-6-7-7-7-7-7-4-4-4-4-4-|
A|-7-7-7-7-7-4-4-4-4-4-5-5-5-5-5-2-2-2-2-2-|
E|-5-5-5-5-5-------------------------------|

CHORUS 3:
GUITAR 1&2: X2
e|-----------------------------------------|
B|-----------------------------------------|
G|-------------------------------7-7-7-7-7-|
D|-7-7-7-7-7-2-2-2-2-2-5-5-5-5-5-7-7-7-7-7-|
A|-7-7-7-7-7-2-2-2-2-2-5-5-5-5-5-5-5-5-5-5-|
E|-5-5-5-5-5-0-0-0-0-0-3-3-3-3-3-----------|

BRIDGE 2:
GUITAR 1&2
e|-----------------------------------------------------------------|
B|-----------------------------------------------------------------|
G|-------------------------6-6-6-6-7-7-7-7-----------------7-7-7-7-|
D|-7-7-7-7-2-2-2-2-4-4-4-4-6-6-6-6-7-7-7-7-7-7-7-7-9-9-9-9-7-7-7-7-|
A|-7-7-7-7-2-2-2-2-4-4-4-4-4-4-4-4-5-5-5-5-7-7-7-7-9-9-9-9-5-5-5-5-|
E|-5-5-5-5-0-0-0-0-2-2-2-2-----------------5-5-5-5-7-7-7-7---------|

PART 2:
GUITAR 1: X2
e|-------------------------------------------------|
B|-----------------------------------------[--PM--]|
G|--[-PM-]-----[-PM--]---[-PM-]----[-PM-]--7-7-7-7-|
D|-7-7-7-7-7-7-2-2-2-2-4-4-4-4-4-4-4-4-4-4-7-7-7-7-|
A|-7-7-7-7-7-7-2-2-2-2-4-4-4-4-4-4-4-4-4-4-5-5-5-5-|
E|-5-5-5-5-5-5-0-0-0-0-2-2-2-2-2-2-2-2-2-2---------|

PART 3:
GUITAR 1: X2
e|--------------------------------------------------|
B|--------------------------------------------------|
G|------------------------------------------7-7-7-7-|
D|--7-7-7-7-7-7-2-2-2-2-4-4-4-4-4-4-4-4-4-4-7-7-7-7-|
A|--7-7-7-7-7-7-2-2-2-2-4-4-4-4-4-4-4-4-4-4-5-5-5-5-|
E|--5-5-5-5-5-5-0-0-0-0-2-2-2-2-2-2-2-2-2-2---------|

GUITAR 2: X2
e|-----------------------------------------------------|
B|-----------------------------------------------------|
G|-18-18-18-18-18-9-9-10-10-15-15-15-15-15-13-13-14-14-|
D|--X--X--X--X--X-X-X--X--X--X--X--X--X--X--X--X--X--X-|
A|-16-16-16-16-16-7-7--8--8-13-13-13-13-13-11-11-12-12-|
E|-----------------------------------------------------|

QUESTIONS OR CORRECTIONS [email protected]




Ваше мнение



Капча