Song: Franco Un-American
Artist: NOFX
Album: The war on errorism
Transcribed by: Chris
Figure 1: Figure 2: Picking between Verses
e|-----------------------------------|--------------------------------------|
B|-----------------------------------|--------------------------------------|
G|-----5-5-----------5-5-2-2-5-5-7-7-|-121212--12-14p12--1212--12-16-14-12--|
D|-5-5-5-5-5-5-2-2---5-5-2-2-5-5-7-7-|------------------------------------12|
A|-5-5-3-3-5-5-2-2---3-3-0-0-3-3-5-5-|--------------------------------------|
E|-3-3-----3-3-0-0-------------------|--------------------------------------|
Bridge
e|--------------------------------------------------------------------|
B|--------------------------------------------------------------------|
G|---------------------7------7-----7-------------------5---7---------|
D|-5-----5------5------7------7-----7---2---2---2-------5---7---------|
A|-5-----5------5------5------5-----5---2---2---2-------3---5---------|
E|-3-----3------3-----------------------0---0---0---------------------|
I don't want changes I know reactions Your dilemmas are my distractions
Chorus Interlude (play once and let ring)
e|---------------|----------------|
B|---------------|----------------|
G|----7-----5----|----------------|
D|-5--5--5--5----|-5~ -4~----x4---|
A|-5--5--5--3----|-5~--4~---------|
E|-3-----3-------|-3~--2~---------|
1 I never thought about the universe, it made me feel small.
2 Never thought about the problems of this planet at all.
1 Global warming, radioactive sites
2 Imperalistic wrongs and animal rights. NO!
1 + 2 + 1 + 2 / Picked
p.m.
1 Why think all the bad things when life is so good?
2 Why help with an end when there's always a could?
1 Let the whales worry about the poisons in the sea,
2 Outside of California it's foreign policy.
[Bridge]
I don't want changes
I know reactions
Your dilemmas are my distractions
[Chorus]
That's no way to go Franco Un-American
No way to go Franco Un-American
No way to go Franco Un-American
No way to go Franco, Franco Un-American
1 + 2 + 1 + 2 / Picked
1 I never looked around, never second-guessed
2 Then I read some Howard Zinn now I'm always depressed
1 And now I can't sleep from years of apathy
2 All because I read a little Noam Chomsky
p.m.
1 I'm eating vegetation cause of fast food nation
2 I wear a couple of shoes cause of globalization
1 I'm watching Micheal Moore expose the awful thruth
2 I'm listening to Public Enemy and Reagan Youth
1 I see no world peace cause there are zealous armed forces
2 I eat no breath-mints cause they're from the hooved horses
1 Now I can't believe what an absolute failure
2 The president's laughing cause we voted for Nader ~G5
[Interlude]
That's no way to go Franco Un-American
No way to go Franco Un-American
No way to go Franco Un-American
Where can we go Franco, Franco Un-American?
[Chorus chords]
I want to move north and be a Canadian
Or hang down low with the nice Austrailians
I don't want to be another I-don't-care again
What are we gonna do Franco, Franco Un-American
Problems? Mail me @ [email protected]




Ваше мнение



Капча