Food, Sex and Ewe.
NOFX
TABBED BY: Kirt Pobje
*********************************************************
The verse changes slightly each time. But the change is so small
it isn't even worth showing.
Intro
G:---------------------------|----------------------------|
D:-------------------------5-|----------------------------|
A:-5h7--7-7-7---5h7--7-7-7---|-5h7--7-7-7---5-7-5---------| 4 times
E:---------------------------|--------------------7-5-3-0-|
G:---------------|
D:---------------|
A:---------------| Repeat intro twice.
E:--3---3---3-3--|
Verse
G:-------------|-------------|-----------------|---------|
D:-------------|-------------|-5-5-2-2---------|---------|
A:-------------|-2-2-3-4-5---|---------5-5-2-2-|-3-2-3-5-| 2 times
E:-3-3--3--3-3-|-----------2-|-----------------|---------|
Chorus
G:----------|----------| E:-----------------|
D:----------|----------| D:-5-5-------------|
A:-33333333-|-55555555-| 4 times. A:-----2-2-3-3-5-5-|
E:----------|----------| E:-----------------|
G:---------2-----|-----------------|-----------|
D:-5-5-5-5---5-4-|-5-5-2-2---------|-----------|
A:---------------|---------5-5-2-2-|-3h5-3-2-0-|
E:---------------|-----------------|-----------|
repeat verse and chorus again
During guitar solo repeat verse and chorus.
TABULATED BY: Kirt any problems let me know.
ENJOY




Ваше мнение



Капча