t. See http://www.olga.net/faq/ for more information. #
From: "Patrick Mauro"
Subject: n/nofx/flossing_a_dead_horse.tab
Date: Sat, 25 Sep 1999 11:34:15 -0700
Author/Artist: NOFX
Title: Flossing a Dead Horse
Album: So long and thanks for all the Shoes (1997)
Transcribed by: Patrick Mauro
Email: [email protected]
Date: August 23, 1999
This is a great little instrumental. Crank off your distortion
for the start, and switch to your neck pickup. Listen to the=20
song for timing.
-5--5--5--4--4--4--2--2--2--5--5--5---
-5--5--5--5--5--5--2--2--2--7--7--7---
-6--6--6--6--6--6--3--3--3--7--7--7---
-7--7--7--6--6--6--4--4--4--7--7--7---
-7--7--7--4--4--4--4--4--4--5--5--5---
-5--5--5-----------2--2--2------------
Riff 1 (x6) =
-------------------------- --5-------4-------2-------5---
--10--9--7-----------7b--- --5-------5-------2-------7---
------------9--7--6--6b--- --6-------6-------3-------7---
-------------------------- --7-------6-------4-------7---
-------------------------- --7-------4-------4-------5---
-------------------------- --5---------------2-----------
Riff 2 Riff 3 (x4)
-2-----5--5--5-----2-----4--4--4-----2-----5--5--5--5--5--5--4---^
-2-----5--5--5-----2-----5--5--5-----2-----5--5--7--7--7--7--5---^
-3-----6--6--6-----3-----6--6--6-----3-----6--6--7--7--7--7--6---^
-4-----7--7--7-----4-----6--6--6-----4-----7--7--7--7--7--7--6---^
-4-----7--7--7-----4-----4--4--4-----4-----7--7--5--5--5--5--4---^
-2-----5--5--5-----2-----------------2-----5--5------------------^
Riff 4 (with Distortion) scrape strings here ^
-5--5--4--4--2--2--5--5--5--5--5--5--2--2--5--5---
-5--5--5--5--2--2--7--7--5--5--7--7--2--2--7--7---
-6--6--6--6--3--3--7--7--6--6--7--7--3--3--7--7---
-7--7--6--6--4--4--7--7--7--7--7--7--4--4--7--7---
-7--7--4--4--4--4--5--5--7--7--5--5--4--4--5--5---
-5--5--------2--2--------5--5--------2--2---------
Riff 5 (with Distortion) (x2) =
-5-----5--5--4--5-----5--5--4--5--5--5--
-5-----7--7--5--5-----5--5--5--5--7--7--
-6-----7--7--6--6-----7--7--6--6--7--7--
-7-----7--7--6--7-----7--7--6--7--7--7--
-7-----5--5--4--7-----5--5--4--7--5--5--
-5--------------5--------------5--------
Riff 6 (with Distortion) =
-4-----4-----4--5--5------
-5-----5-----5--7--5------
-6-----6-----6--7--6------
-6-----6-----6--7--7------
-4-----4-----4--5--7------
-------------------5------
Riff 7 (with Distortion) =

~~~~~~~~~~~~~~~~~~~~~~~~
PATRICK MAURO
University of Victoria - Engineering
mailto:[email protected]
http://www.engr.uvic.ca/~pmauro/




Ваше мнение



Капча