Song: five feet under
Band: NoFX
Album: s&m airlines
tabbed by: Carlos Pino
untro
G:---------------------------------------------------------------
D:---------------------------------------------------------------
A:---------------------------------------------------------------
E:-5-5-5-5--3-3-3-3--1-1-1-1--3-2--0-0-0-0----------
G:---------------------------------------------------------------
D:---------------------------------------------------------------
A:---------------------------------------------------------------
E:-5-5-5-5-3-3-3-3-1-1-1-1-3-2-0-0-0-0-0-0-0-0---
verse
G:---------------------------------------------------------------
D:---------------------------------------------------------------
A:------------------------------------------------------------------------2-3
E:-5-5-5-5-5-5-5-5-3-3-3-3-3-3-3-3-1-1-1-1-1-1-1-1-0-0-----
chorus
G:--------------------------------------------------------------
D:---------------------------------------------------------------
A:---------------------2-5-5-5-5-8-8-8-8-------7-7------
E:-5-5-5-5--3-0-0--------------------------8-8------------
G:---------------------------------------------------------------
D:---------------------------------------------------------------
A:-7-7--8-8---------------------------------------------------
E:-------------8-8--7-7---------------------------------------




Ваше мнение



Капча