Author/Artist: NoFx
Title: Falling in Love
Transcribed by: Graham Webb
Email: [email protected]
Intro: clean
------------------------------------------------------------------------------
------------------------------------------------------------------------------
------------------------------------------------------------------------------
-5-5-4--5-5-4--5-5-4--5-5-5---x3---5-5-4--5-5-7--9-9-5--7-4-5-5-5-------------
------------------------------------------------------------------------------
------------------------------------------------------------------------------
Add distortion ,
------------------------------------------------------------------------------
------------------------------------------------------------------------------
------------------------------------------------------------------------------
-5-5-4--5-5-4--5-5-4--5-5-5--5-5-4--5-5-7--9-9-5--7-4-5-\-4-------------------
------------------------------------------------------------------------------
------------------------------------------------------------------------------
After the intro the 1st verse consists of bass only, until the solo.......
------------------------------------------------------------------------------
------------------------------------------------------------------------------
-333333-55-77777777-8877-555555-3322000022-3333-88-777777-888888-77-55-33-----
------------------------------------------------------------------------------
------------------------------------------------------------------------------
------------------------------------------------------------------------------
The solo. Pick the string up & down really fast, so it makes one continuous
sound.... Use the very end of the pick and it should work.
Chorus: Distortion!
------------------------------------------------------------------------------
------------------------------------------------------------------------------
-------------------------------------10-10-10-10-10-10--5-5-5-5-5-5-5-5-------
--5-5-5-5-5-5-5-7-8-8-8-8-8-8-8-8-8--10-10-10-10-10-10--5-5-5-5-5-5-5-5-------
--5-5-5-5-5-5-5-7-8-8-8-8-8-8-8-8-8--8--8--8--8--8--8---3-3-3-3-3-3-3-3-------
--3-3-3-3-3-3-3-5-6-6-6-6-6-6-6-6-6-------------------------------------------
It don't seem so bad, when i'm with you....... My only love, suppose
------------------------------------------------------------------------------
------------------------------------------------------------------------------
--7---8-8-8-8-8-8-8-8-8-8-8--3-3-3-3-3-3-3--5-5-5-5-5-5-5-5-5-7-8-8-8-8-8-8---
--7---8-8-8-8-8-8-8-8-8-8-8--3-3-3-3-3-3-3--5-5-5-5-5-5-5-5-5-7-8-8-8-8-8-8---
--5---6-6-6-6-6-6-6-6-6-6-6--1-1-1-1-1-1-1--3-3-3-3-3-3-3-3-3-5-6-6-6-6-6-6---
------------------------------------------------------------------------------
your right, kiss me one last time....we're gunna die, but not alone
------------------------------------------------------------------------------
------------------------------------------------------------------------------
--3--33-3-33-3-33-3-33-3------------------------------------------------------
------------------------------------------------------------------------------
------------------------------------------------------------------------------
------------------------------------------------------------------------------
For the last verse the only guitar (apart from bass) plays this repeatedly




Ваше мнение



Капча