There is no guitar tab for this and it's a grrrrrrreat! song
Some random talking, then the intro starts overdubbing it. Listen to the song to get the rhythm!
Clean tone intro
e--------------------------------------------------------|
b--------------------------------------------------------|
g--------------------------------------------------------|
d-5-5-4--5-5-4--5-5-4--5-5-5--5-5-4--5-5-4--5-5-4--5-5-5-|
a-5-5-5--5-5-5--5-5-5--5-5-5--5-5-5--5-5-5--5-5-5--5-5-5-|
e--------------------------------------------------------|
e-----------------------------------------------------------|
b-----------------------------------------------------------|
g-----------------------------------------------------------|
d-5-5-4--5-5-4--5-5-4--5-5-5--5-5-4--5-5-7--9-9-4-5-7-5-5-5-|
a-5-5-5--5-5-5--5-5-5--5-5-5--5-5-5--5-5-5--7-7-5-5-5-5-5-5-|
e-----------------------------------------------------------|
Distortion part (nearly same as intro)
Guitar 1
e--------------------------------------------------------|
b--------------------------------------------------------|
g--------------------------------------------------------|
d-5-5-4--5-5-4--5-5-4--5-5-5--5-5-4--5-5-4--5-5-4--5-5-5-|
a-5-5-5--5-5-5--5-5-5--5-5-5--5-5-5--5-5-5--5-5-5--5-5-5-|
e--------------------------------------------------------|
e-----------------------------------------------------------|
b-----------------------------------------------------------|
g-----------------------------------------------------------|
d-5-5-4--5-5-4--5-5-4--5-5-5--5-5-4--5-5-7--9-9-4-5-7-5-5-5-|
a-5-5-5--5-5-5--5-5-5--5-5-5--5-5-5--5-5-5--7-7-5-5-5-5-5-5-|
e-----------------------------------------------------------|
Guitar 2
e--------------------------------------------------------------------|
b--------------------------------------------------------------------|
g-12-12-12--9-9-7--5-5-7----------12-12-12--12-12-14--16-16-12-12-12-|
d-12-12-12--9-9-7--5-5-7--5-5-5---12-12-12--12-12-14--16-16-12-12-12-|
a-10-10--9--7-7-5--3-3-5--5-5-5---10-10--9--10-10-12--14-14--9--9--9-|
e-------------------------3-3-3--------------------------------------|
e----------|
b----------|
g--let ring
d-5>>>>>>>> Verse starts
a-5>>>>>>>>
e-3>>>>>>>>
Verse (blast oxygen masks, smoked filled cabin)
(bass plays all)
Bridge
guitar 1
e------------------------------------------------------------------------|
b------------------------------------------------------------------------|
g-12-12-12-12-12-1212-15-14-10-10-10-10-10-10-10-10-10-10-10-10-10-10-10-|
d---------------------------------------------10-10-10-10-10-10-10-10-10-|
a-10-10-10-10-10-1010-13-12-8-8-8-8-8-8-8-8-8-8--8--8--8--8--8--8--8--8--|
e------------------------------------------------------------------------|
guitar 1 (continued)
e--------------------------------------------------------------|
b--------------------------------------------------------------|
g-8-8-8-88-7-7-7-77-8-8-8-8-8-88-12-12-10-10-10-10-10-10-10-10-|
d--------------------------------------------------------------|
a-6-6-6-66-5-5-5-55-6-6-6-6-6-66-10-10-8--8--8--8--8--8--8--8--|
e--------------------------------------------------------------|
guitar 1 (continued)
e------------------|
b------------------|
g-8-8-8-8-8-8-8-88-|
d-8-8-8-8-8-8-8-88-|
a-6-6-6-6-6-6-6-66-|
e------------------|
guitar 2(listen 2 song to strum chords to thr rhythm of the song)
e------------------------------------------|
b------------------------------------------|
g----------------5----8---------------8----|
d-5----8----3----5----8----8----10----8----|
a-5----8----3----3----6----8----10----6----|
e-3----6----1--------------6----8----------|
Verse (guitar played this time) Listen to the song and strum each chord until it changes.
e---------------------------------------|
b---------------------------------------|
g-----------10----5----8---------5----8-|
d-5----8----10----5----8----8----5----8-|
a-5----8----8-----3----6----8----3----6-|
e-3----6--------------------6-----------|
End (keep playin this note throughout the last bit of the song, i think there is only 1
played on this part)
End on this
e---------------------------------- e------------|
b---------------------------------- b-4----------|let-ring
g-3-3-3-3-3-3-3-3-3-3-3-3-3-3-3-etc g------------|
d---------------------------------- d------------|
a---------------------------------- a------------|
e---------------------------------- e------------|
I think that is correct anyway, if you would like me to correct this e-mail me on




Ваше мнение



Капча