NoFX
Eat The Meek.
So long and thanks for all the shoes.
Esteban Varela Маrтнnеz. E-MAIL: [email protected]

This is a great bassline by Fat Mike:

TUNE: E A D G.

Riff 1:

|--------------------------------------------------------------------------
|------------------------------10-----8-7------8---------8------10----8-10-
|----5-5-8-5-5-5-8-5-8-8--8-8-8------------------8-8----8-8-8--------------
|-------------------------------------------6-6---6--6-6-------------------

Riff 2:

|---------------------------------------------------------------------------
|-------------------------------------------------------10----------10------
|---5-5-8-5-5-5-8-7-5------8------------5-8-8----8-8-8-----8------10------8-
|---------------------------------8-8----8-8-8-10---10-|

Riff 3:

|--------------------------------------------------------------------------
|------------------------------------------------------------------------10-7
|5-5-8-5-5-5-8-7-5-8-----------5------10------------8-7/8-8-8-8-8-8-10-10-
|-------------------6-6-6-6-6-8--6-8-8---8-8-8-10-10-----------------------

Riff 4:

|----------------------------------------------------------------------|
|----------------------------10-------10-------------------------------|
|5-5-8-5-5-5-8-7-5-8-8--8-8-8---8--10--------10----------7----------7-|
|----------------------------------------8-8-----8-8-8---8-5-5--5-5-5-5|

Figure 5:

|----------------------------------------------------------------------|
|--------------------------------------------10-10-10----------|
|5-5-5-5-8-8-8-5-5-5------8-8-8----8-8-8-8-----8-8-8----10-10-10------|
|--------------------6-6-6-6----6-6-6-------------------8-8-8-8-----8-8-8|

Figure 6: I donґt figure out the rhthym here, so listen the song and you can get it .

|----------------|
|----------------|
|--5---8--8--|
|----------6----|

Song progression:

Figure 1: 4 times.
Figure 2: 2 times.
Figure 1: 2 times.
Figure 3: 1 time.
Figure 4: 1 time.
Figure 1: 2 times.
Figure 5: 2 times.
Figure 6: 2 times.

There are some mistakes on gosht notes because I tab it very fast but it sound great. This song is very easy.
Comments to Esteban: [email protected]




Ваше мнение



Капча