Fun song to play, not many of the other tabs for this song are right, but this is 100% perfect.

A:= Guitar 1 B:= Guitar 2

Intro Part 1:
A: plays this note palm muted over and over
e-------------------------------------
b-------------------------------------
g-------------------------------------
d-------------------------------------
a-------------------------------------
e-55555555555555555555555555555555555

B: after A: plays the above note for while B: Plays this, also palm muted
e-------------------------------------
b-------------------------------------
g-------------------------------------
d-------------------------------------
a-------------------------------------
e--0345---0345---0345---034555555555--

Intro: Part 2
A: and B:
e--------------------------------------------------------------------------
b--------------------------------------------------------------------------
g-----------------999-7-55555----------------------44--44-4----------------
d-777-5-22222-----***-*-*****-----777-5-22222-----5555555555---------------
a-777-5-33333-----777-5-33333-----777-5-33333-----5555555555---------------
e-555-3-------030-------------030-555-3-------030-3333333333---------------
pm.. pm.. pm..

e--------------------------------------------------------------------------
b--------------------------------------------------------------------------
g-----------------999-7-55555----------------------------------------------
d-777-5-22222-----***-*-*****-----777-5-22222-----5555555555---------------
a-777-5-33333-----777-5-33333-----777-5-33333-----5555555555---------------
e-555-3-------030-------------030-555-3-------030-3333333333---------------
pm.. pm.. pm..pm.........

Verse: ' Want to fuck up, drop out...'
e-----------------------------------------------------------------------------
b-----------------------------------------------------------------------------
g-----------------------------------------------------------------------------
d-7777777-22222222222222222-33333333333333-777777777-22222222222222-555555555-
a-7777777-33333333333333333-33333333333333-777777777-33333333333333-555555555-
e-5555555-------------------11111111111111-555555555----------------333333333-

Chorus: A: and B: 'for that matter dont trust..
e--------------------------------I------------------
b--------------------------------I------X2----------
g-----------------5555-----------I-3333------5555---
d-3333-5555-7777--5555-5555-3333-I-3333-3333-5555---
a-3333-5555-7777--3333-5555-3333-I-1111-3333-3333---
e-1111-3333-5555-------3333-1111-I------1111--------
'Drugs are good....' 'People think that ure cool...'

Then intro part 2 again, Verse, Chorus then intro part 2 again and instead of Palm muting G chord end with this:
e------3------------------------------------
b-----3------------------------------------
g----4------------------------------------
d---5------------------------------------
a--5------------------------------------
e-3------------------------------------

[email protected]


Ваше мнение



Капча