From: littleboodle [email protected]
Intro
-----------------------------------------------------------------------------
-----------------------------------------------------------------------------
-----------------------------------------------------------------------------
---9-8-7-6-5--9-8-7-6-5--9-8-7-6-5----9-9-9-9-9-9-9-9-9-9-9-9----------------
---7-6-5-4-3--7-6-5-4-3--7-6-5-4-3----7-7-7-7-7-7-7-7-7-7-7-7----------------
-----------------------------------------------------------------------------
Verse
------------------------------------------------------------------------------
------------------------------------------------------------------------------
------------------------------------------------------------------------------
---------------------------------------------------9-8-7-6-5--9-9-9-9-9-9-9-9-
-5-5-5-5-5-5-5-5-5-5-5-5-7-7-7-7-7-7-7-7-7-7-9-9---7-6-5-4-3--7-7-7-7-7-7-7-7-
-3-3-3-3-3-3-3-3-3-3-3-3-5-5-5-5-5-5-5-5-5-5-7-7------------------------------
------------------------------------------------------------------------------
------------------------------------------------------------------------------
------------------------------------------------------------------------------
-9-9-9-9--------------------------------------------------0-5-7-5-0-----0-5-7-
-7-7-7-7-5-5-5-5-5-5-5-5-5-5-5-5-7-7-7-7-7-7-7-7-7-7--7-5-----------7-5-------
---------3-3-3-3-3-3-3-3-3-3-3-3-5-5-5-5-5-5-5-5-5-5--------------------------
------------------------------------------------------------------------------
------------------------------------------------------------------------------
------------------------------------------------------------------------------
-5-0--9-9-9-9-9-9-9-9-9-9-9-12-12-12-12-12-12-12-12-12-7-7-7-7-7-7-7-7-7------
------7-7-7-7-7-7-7-7-7-7-7-10-10-10-10-10-10-10-10-10-5-5-5-5-5-5-5-5-5------
------------------------------------------------------------------------------
------------------------------------------------------------------------------
------------------------------------------------------------------------------
---------------9-8-7----------------------------------------------------------
-----0-5-7-5-7-------9-8-7-5--9-9-9-9-9-9-9-9-9-------------------7-7-7-7-7-7-
-7-5--------------------------7-7-7-7-7-7-7-7-7-5-5-5-5-5-5-5-5-5-5-5-5-5-5-5-
------------------------------------------------3-3-3-3-3-3-3-3-3-------------
------------------------------------------------------------------------------
------------------------------------------------------------------------------
------------------------------------------------------------------------------
-7-7-7-9-9-9-9-9-9-9-9---------------9-9-9-9-9-9-9-9-9-9-9-7-5-5-5-5-5-5-5-5--
-5-5-5-7-7-7-7-7-7-7-7-7-7-7-7-7-7-7-7-7-7-7-7-7-7-7-7-7-7-5-3-3-3-3-3-3-3-3--
-----------------------5-5-5-5-5-5-5------------------------------------------
------------------------------------------------------------------------------
------------------------------------------------------------------------------
----------------------------------------------0-5-7-0----0-5-7-0--------------
-9-9-9-9-9-9-9-9---------------------------7b---------7b----------------------
-7-7-7-7-7-7-7-7-7-7-7-7-7-7-7-7-7-7-7-7-7------------------------------------
-----------------5-5-5-5-5-5-5-5-5-5-5-5-5------------------------------------
------------------------------------------------------------------------------
------------------------------------------------------------------------------
------------------------------------------------------------------------------
-9-9-9-9-9-9-9-9-9-9-9-9------------------------------------------------------
-7-7-7-7-7-7-7-7-7-7-7-7-5-5-5-5-5-5-5-5-5-5-5-5-7-7-7-7-7-7-7-7-7-7-9-9------
-------------------------3-3-3-3-3-3-3-3-3-3-3-3-5-5-5-5-5-5-5-5-5-5-7-7------
------------------------------------------------------------------------------
------------------------------------------------------------------------------
------------------------------------------------------------------------------
-9-8-7-6-5--9-9-9-9-9-9-9-9-9-9-9-9-------------------------------------------
-7-6-5-4-3--7-7-7-7-7-7-7-7-7-7-7-7-5-5-5-5-5-5-5-5-5-5-5-5-7-7-7-7-7-7-7-7-7-
------------------------------------3-3-3-3-3-3-3-3-3-3-3-3-5-5-5-5-5-5-5-5-5-
------------------------------------------------------------------------------
------------------------------------------------------------------------------
------------------------------------------------------------------------------
------------0-5-7-0-----0-5-7-0--9-9-9-9-9-9-9-9-9-9-9-12-12-12-12-12-12-12---
-7-9-9--7-5---------7-5----------7-7-7-7-7-7-7-7-7-7-7-10-10-10-10-10-10-10---
-5-7-7------------------------------------------------------------------------
------------------------------------------------------------------------------
------------------------------------------------------------------------------
---------------------------------------9-8-7----------------------------------
-12-12-7-7-7-7-7-7-7-7-7-----0-5-7-5-0-------9-8-7-5-9-9-9-9-9-9-9-9-5-5-5-5--
-10-10-5-5-5-5-5-5-5-5-5-7-5-------------------------7-7-7-7-7-7-7-7-3-3-3-3--
------------------------------------------------------------------------------
------------------------------------------------------------------------------
------------------------------------------------------------------------------
------------------------------------------------------------------------------
-5-5-5-5-5---------------------------------9-9-9-9-9-9-9-9-9-9----------------
-3-3-3-3-3-5-5-5-5-5-5-5-5-7-7-7-7-7-7-7-7-7-7-7-7-7-7-7-7-7-7-7-7-7-7-7-7-7--
-----------3-3-3-3-3-3-3-3-5-5-5-5-5-5-5-5---------------------5-5-5-5-5-5-5--
------------------------------------------------------------------------------
------------------------------------------------------------------------------
------------------------------------------------------------------------------
-------9-9-9-9-9-9-9-9-9-7-5-5-5-5-5-5-5-5-5-5--------------------------------
-7-7-7-7-7-7-7-7-7-7-7-7-5-3-3-3-3-3-3-3-3-3-3--------------------------------
-5-5-5------------------------------------------------------------------------
------------------------------------------------------------------------------
--5555555555555555-8-7-5-8-7-5-3-----8-7-----------8-777777777777-8/12-12-12--
---------------------------------8/4-----8-6-8/4-4----------------------------
------------------------------------------------------------------------------
------------------------------------------------------------------------------
------------------------------------------------------------------------------
------------------------------------------------------------------------------
-12-12-12-12-12-12-12/15-15-15-15-15-15-15-15-15-14-13-12/--------------------
------------------------------------------------------------------------------
------------------------------------------------------------------------------
------------------------------------------------------------------------------
------------------------------------------------------------------------------
------------------------------------------------------------------------------
------------------------------------------------------------------------------
------------------------------------------------------------------------------
-9-9-9-9-9-9-9-9-9-9-9-9------------------------------------------------------
-7-7-7-7-7-7-7-7-7-7-7-7-5-5-5-5-5-5-5-5-5-5-5-5-7-7-7-7-7-7-7-7-7-7-9-9------
-------------------------3-3-3-3-3-3-3-3-3-3-3-3-5-5-5-5-5-5-5-5-5-5-7-7------
------------------------------------------------------------------------------
------------------------------------------------------------------------------
------------------------------------------------------------------------------
-9-8-------9-9-9-9-9-9-9-9-9-9-9-9--------------------------------------------
-7-6-8-8-7-7-7-7-7-7-7-7-7-7-7-7-7-5-5-5-5-5-5-5-5-5-5-5-5-7-7-7-7-7-7-7-7-7--
-----6-6-5-------------------------3-3-3-3-3-3-3-3-3-3-3-3-5-5-5-5-5-5-5-5-5--
------------------------------------------------------------------------------
------------------------------------------------------------------------------
------------------------------------------------------------------------------
----------0-5-7-5-0-----0-5-7-5-0--9-9-9-9-9-9-9-9-9-------------------7-7-7--
-7-7--5-7-----------5-7------------7-7-7-7-7-7-7-7-7-5-5-5-5-5-5-5-5-5-5-5-5--
-5-5-------------------------------------------------3-3-3-3-3-3-3-3-3--------
------------------------------------------------------------------------------
------------------------------------------------------------------------------
------------------------------------------------------------------------------
-7-7-7-7-7-7-----0-5-7-5-0-----0-5-7-5-0--9-9-9-9-9-9-9-9-9-9-9-12-12-12-12---
-5-5-5-5-5-5-7-5-----------7-5------------7-7-7-7-7-7-7-7-7-7-7-10-10-10-10---
------------------------------------------------------------------------------
------------------------------------------------------------------------------
------------------------------------------------------------------------------
------------------------------------------------------------------------------
-12-12-12-12-12-12-12-5-5-5-5-5-5-5-5-5---------------------------------9-9---
-10-10-10-10-10-10-10-3-3-3-3-3-3-3-3-3-5-5-5-5-5-5-5-5-5-7-7-7-7-7-7-7-7-7---
----------------------------------------3-3-3-3-3-3-3-3-3-5-5-5-5-5-5-5-------
------------------------------------------------------------------------------
------------------------------------------------------------------------------
------------------------------------------------------------------------------
-9-9-9-9-9-9-9-9-7-9-7-9-7-9-7-9-7-9-7-----------------------7-7-7-7-7-7-7-7--
-7-7-7-7-7-7-7-7-----------7-----------5-5-5-5-5-5-5-5-5-5-5-5-5-5-5-5-5-5-5--
---------------------------------------3-3-3-3-3-3-3-3-3-3-3------------------
------------------------------------------------------------------------------
------------------------------------------------------------------------------
------------------------------------------------------------------------------
-7-7-7-9-7-9-7-9-7---7--------------------------------------------------------
-5-5-5-7-----------5-5--------------------------------------------------------
-------------------3----------------------------------------------------------
/= bend




Ваше мнение



Капча