Date: Sat, 26 Aug 1995 20:10:12 -0600 (MDT)
From: Jeff Mutt
Subject: Day to daze... by NOFX

DAY TO DAZE...
intro...
e-|---------------------------------------------------|
B-|---------------------------------------------------|
G-|---------------------------------------------------|
D-|---------------------------------------------------|
A-|-----------3-----------3-----------3-----------3---|
E-|-5-3-0-3-5---5-3-0-3-5---5-3-0-3-5---5-3-0-3-5-----|
e-|----------------------------------------------------------------------|
B-|----------------------------------------------------------------------|
G-|-14-12-14-12-14-17-14-12-14-12-14-17-14-12-14-12-14-17-14-17-19-14-17-|
D-|-14-12-14-12-14-17-14-12-14-12-14-17-14-12-14-12-14-17-14-17-19-14-17-|
A-|-12-10-12-10-12-15-12-10-12-10-12-15-12-10-12-10-12-15-12-15-17-12-15-|
E-|----------------------------------------------------------------------|
this is more of the intro and the part where hes singing."I trusted you
atleast I thought I could ..I tried to believe when you said"
verse..
e-|-----------------------------------------------------------------|
B-|-----------------------------------------------------------------|
G-|---------------------------------5-5-5-5-5-5-5-5-----------------|
D-|-7-7-7-7-7-7-7-7-3-3-3-3-3-3-3-3-5-5-5-5-5-5-5-5-5-5-5-5-5-5-5-5-|
A-|-7-7-7-7-7-7-7-7-3-3-3-3-3-3-3-3-3-3-3-3-3-3-3-3-5-5-5-5-5-5-5-5-|
E-|-5-5-5-5-5-5-5-5-1-1-1-1-1-1-1-1-----------------3-3-3-3-3-3-3-3-|
e-|-----------------------------------------------------------------|
B-|-----------------------------------------------------------------|
G-|-5-5-5-5-5-5-5-5-------------------------------------------------|
D-|-5-5-5-5-5-5-5-5-7-7-7-7-7-7-7-7-3-3-3-3-3-3-3-3-5-5-5-5-5-5-5-5-|
A-|-3-3-3-3-3-3-3-3-7-7-7-7-7-7-7-7-3-3-3-3-3-3-3-3-5-5-5-5-5-5-5-5-|
E-|-----------------5-5-5-5-5-5-5-5-1-1-1-1-1-1-1-1-3-3-3-3-3-3-3-3-|
chorus:
e-|---------------------------|
B-|---------------------------|
G-|-5-5-2--2-2-2--------------|
D-|-5-5-2--2-2-2-5-5-3--3-3-3-|
A-|-3-3-0--0-0-0-5-5-3--3-3-3-|
E-|--------------3-3-1--1-1-1-|
bridge...
e-|------------------------------------------|
B-|------------------------------------------|
G-|------------------------------------------|
D-|------------------------------------------|
A-|--------------------3---------------8-7-3-|
E-|-5-5-5-5-3h5-5--5-5---5-5-5-5-3h5-5-------|
okay... thats the song...
transcribed by rambozo...[email protected]




Ваше мнение



Капча