Nofx - Clams Have Feelings To(Actually They Don't)
By:Andrew ([email protected])

Intro
e|---------------------------------------------------------------------------|
B|---------------------------------------------------------------------------|
G|-------------7-7-7-----9-9-------------------------------------------------|
D|-------4-4-4-7-7-7-7-7-9-9-------x2----------------------------------------|
A|-4-4-4-6-6-6-5-5-5-4-4-7-7-------------------------------------------------|
E|-5-5-5---------------------------------------------------------------------|
Verse 1 and 2
e|---------------------------------------------------------------------------|
B|---------------------------------------------------------------------------|
G|-----------6-6-6-6-7---9------------6-6-6-6---7-7-7-7----------------------|
D|-7-7-7-7-7-6-6-6-6-7-7-9--7-7-7-7-7-6-6-6-6-4-7-7-7-7----------------------|
A|-7-7-7-7-7-4-4-4-4-5-7-7--7-7-7-7-7-4-4-4-4-4-5-5-5-5----------------------|
E|-5-5-5-5-5-----------5----5-5-5-5-5---------2------------------------------|
Chorus
e|---------------------------------------------------------------------------|
B|---------------------------------------------------------------------------|
G|-------------7-7-7-7----------7-7-7-7--------------------------------------|
D|-4-4-4-4-3-3-7-7-7-7----------7-7-7-7--------------------------------------|
A|-4-4-4-4-3-3-5-5-5-5--4-4-5-5-5-5-5-5--------------------------------------|
E|-2-2-2-2-1-1----------5-5-3-3----------------------------------------------|
Verse 3
e|---------------------------------------------------------------------------|
B|---------------------------------------------------------------------------|
G|------------8-8-8-8-9---11----------8-8-8-8---------9-9-9-9-9--------------|
D|--9-9-9-9-9-8-8-8-8-9-9-11--9-9-9-9-8-8-8-8-6-6-6-6-9-9-9-9-9--------------|
A|--9-9-9-9-9-6-6-6-6-7-9-9---9-9-9-9-6-6-6-6-6-6-6-6-7-7-7-7-7--------------|
E|--7-7-7-7-7-----------7-----7-7-7-7---------4-4-4-4------------------------|
Solo
e|-14/16-14/16-14/16/14/16/13-14/16/14/11/14/13------------------------------|
B|----------------------------------------------14/16/14/16-12-------12------|
G|-------------------------------------------------------------13-11----13---|
D|---------------------------------------------------------------------------|
A|---------------------------------------------------------------------------|
E|---------------------------------------------------------------------------|

e|---------------------------------------------------------------------------|
B|---------------------------------------------------------------------------|
G|-7-------7----7---7--7--7---------------7--------4-------------------------|
D|---8-6-4----8---6---8--6--8-6-4---4-6/8----8---6---4-----------------------|
A|--------------------------------6------------6-----------------------------|
E|---------------------------------------------------------------------------|
Bridge
e|-7-----4-------------------------------------------------------------------|
B|-7--8--4--9----------------------------------------------------------------|
G|-8--8--5--9----------------------------------------------------------------|
D|-9--8--6--9----------------------------------------------------------------|
A|-9--6--6--7----------------------------------------------------------------|
E|-7-----4-------------------------------------------------------------------|




Ваше мнение



Капча