CHEESE/WHERE'S MY SLICE by NOFX. Album: Ribbed (1991) 1/2
Cool riffs, which are hard to remember.
A=wide guitar B=large guitar A&B=both guitars
:
# intro #A&B X2 m=palm-muted
E----------------------------------------------------|
B----------------------------------------------------|
G------m-m-m------m-m-m-m----m-m-m-------5-------4---|
D---7--7-7-7-7--7-7-7-7-7-3--3-3-3-3---5-------4-----|
A---7--7-7-7-7--7-7-7-7-7-3--3-3-3-3-3-------2-------|
E---5--5-5-5-5--5-5-5-5-5-1--1-1-1-1-----------------|
:
# intro2 #A&B m=palm-muted
E----------------------------------------------------|
B----------------------------------------------------|
G------m-m-m------m-m-m-m----m-m-m-------5-5--5-5----|
D---7--7-7-7-7--7-7-7-7-7-3--3-3-3-3--3--5-5--5-5----|
A---7--7-7-7-7--7-7-7-7-7-3--3-3-3-3--3--3-3--3-3----|
E---5--5-5-5-5--5-5-5-5-5-1--1-1-1-1--1--------------|
:
# intro3 #A&B X2 m=palm-muted
E-------------------------------------------------------------------|
B-------------------------------------------------------------------|
G------m-m-m------m-m-m-m----m-m-m-------5-----4---7-----9-9--9-9---|
D---7--7-7-7-7--7-7-7-7-7-3--3-3-3-3---5-----4-----7-----9-9--9-9---|
A---7--7-7-7-7--7-7-7-7-7-3--3-3-3-3-3-----2-------5-----7-7--7-7---|
E---5--5-5-5-5--5-5-5-5-5-1--1-1-1-1--------------------------------|
:
# verse #A *=play 6X m=palm-muted
E---------------------------------------------------|
B----*-------*-------*-------*----------------------|
G---9----*--5----*-10----*--5----*---*---*--m*--m*--|
D---9---3---5---5--10---5---5---3---5---3---5---5---|
A---7---3---3---5---8---5---3---3-----------5---5---|
E-------1-------3-------3-------1-----------3---3---|
# verse #B *=play 6X m=palm-muted
E---------------------------------------------------|
B----*-------*-------*-------*----------------------|
G---9----*--5----*-10----*--5----*---*---*--m*--m*--|
D---9---3---5---5--10---5---5---3---5---3---5---5---|
A---7---3---3---5---8---5---3---3---5---3---5---5---|
E-------1-------3-------3-------1---3---1---3---3---|
:
# chorus #A&B *=play 12X # bridge #A&B *=play 6X
E---------------| E-------------------------------------------|
B----*----------| B----*-------*---------------*---*---*---*--|
G---5----*---*--| G---5----*--4----*---*---*--7---7---5---7---|
D---5---7---3---| D---5---4---4---2---5---5---7---7---5---7---|
A---3---7---3---| A---3---5---2---3---5---5---5---5---3---5---|
E-------5---1---| E-------------------3---3-------------------|
:
Then play verseA or verseB (You waste your time concerned...).
:
# chorus2 #A&B *=play 12X
E---------------------------------------------------|
B----*-------*-------*------------------------------|
G---5-------9------10-------------------------------|
D---5-------9------10-------3-2-----5-4-----7-6-----|
A---3-------7-------8-----------3-------5-------7---|
E---------------------------------------------------|
:
>>>>>>>>>to next page...
:
:
:
:
:
:
CHEESE/WHERE'S MY SLICE 2/2
:
# verse2 #A *=play 6X m=palm-muted (Your brilliant theory...)
E---------------------------------------------------|
B----*-------*-------*-------*----------------------|
G--11----*--7----*-12----*--7----*---*---*--m*--m*--|
D--11---5---7---7--12---7---7---5---7---5---7---7---|
A---9---5---5---7--10---7---5---5-----------7---7---|
E-------3-------5-------5-------3-----------5---5---|
# verse2 #B *=play 6X m=palm-muted
E---------------------------------------------------|
B----*-------*-------*-------*----------------------|
G--11----*--7----*-12----*--7----*---*---*--m*--m*--|
D--11---5---7---7--12---7---7---5---7---5---7---7---|
A---9---5---5---7--10---7---5---5---7---5---7---7---|
E-------3-------5-------5-------3---5---3---5---5---|
:
# chorus3 #A&B *=play 12X
E-------------------------------|
B----*-----------*---*---*---*--|
G---7----*---*--7---7--11--12---|
D---7---9---5---7---7--11--12---|
A---5---9---5---5---5---9--10---|
E-------7---3-------------------|
:
# outro #A *=play 12X ^=pause
E---------------------------------------------------|
B----*-------*-------*------------------------------|
G---7----^-11----^-12-------------------------------|
D---7----^-11----^-12---------------2-1-----4-3-----|
A---5----^--9----^-10-------5-4-0-------2-------4---|
E---------------------------------------------------|
# outro #B *=play 12X ^=pause
E---------------------------------------------------|
B----*-------*-------*------------------------------|
G---7----^-11----^-12-------2-1-----4-3-----6-5-----|
D---7----^-11----^-12-----------2-------4-------6---|
A---5----^--9----^-10-------------------------------|
E---------------------------------------------------|
:
This is your slice!
Tabbed by Jussi Heinonen 25.02.1998.




Ваше мнение



Капча