CHAMPS ЕLУSФЕS by NOFX. Album : So long and thanks for all the shoes (1998)

This song was originally made by The Beatles!

A=Melvin B=El Hefe A&B=both
:
# intro #A *=play 7X with palm-muting
E----------------------------------|
B-------------*-------*-------*----|
G----*------12-------7------10-----|
D--10-------12-------7------10-----|
A--10-------10-------5-------8-----|
E---8------------------------------|
# intro #B
E----------------------------------|
B----------------------------------|
G----------------------------------|
D--10--------9-------7-------7-7-5-|
A----------------------------------|
E----------------------------------|
:
# intro2 #B !A plays introA!
E-----------------------------------|
B-----------------------------------|
G-----------------------------------|
D--10--------9-------7-------7-7-10-|
A-----------------------------------|
E-----------------------------------|
:
# intro3 #B !A plays introA! *=play 7X with palm-muting
E------------------------------------|
B------------------------------------|
G----*--------*-------*-------*------|
D--10--------9-------7-------7---5-5-|
A------------------------------------|
E------------------------------------|
:
# intro4 #B !A plays introA! *=play 7X with palm-muting
E------------------------------------|
B------------------------------------|
G----*--------*-------*-------*------|
D--10--------9-------7------10-------|
A------------------------------------|
E------------------------------------|
:
# into-verse #A
E------------------------------------------|
B------------------------------------------|
G-------------------------------101012-----|
D-------------------------------10101210---|
A---3----------------3-3---------8-81010---|
E--------------------------------------8---|
# into-verse #B
E------------------------------------------|
B------------------------------------------|
G--------------------------------------5---|
D--------------------------------3-3-5-5---|
A---3----------------3-3---------3-3-5-3---|
E--------------------------------1-1-3-----|
:
# into-chorus #A&B
E-------------|
B-------------|
G---------5---|
D---3-3-5-5---|
A---3-3-5-3---|
E---1-1-3-----|
:
:
# chorus #A&B *=play 4X
E---------------------------------------------------------------------|
B------------------------------------*-------*---*-------*------------|
G----*-------*---*---*---*---*---*--5----*--5---5----*--5---------5---|
D--10----*--7---5---3---2---0---5---5---5---5---5---3---5---3-3-5-5---|
A--10---5---7---5---3---2---0---5---3---5---3---3---3---3---3-3-5-3---|
E---8---7---5---3---1---0-------3-------3-----------1-------1-1-3-----|
:
# bridge #A&B X2 *=play 4X
E-------------------------------------|
B-------------------------------------|
G----*---*-------*---*---*--5-5---5---| > Then play A&Binto-chorusA&B.
D---3---5--10---7---3---5---5-5-5-5---|
A---3---5--10-5-7---3---5---3-3-5-3---|
E---1---3---8-7-5---1---3-------3-----|
:
# chorus2 #A *=play 4X
E---------------------------------------------------------------------------|
B----------------------------*---*---*-------*---*-------*------------------|
G----*-------*---*---*---*--7--12---5----*--5---5----*--5----*---*---*---*--|
D--10----*--7---5---3---2---7--12---5---5---5---5---3---5---3---3---5---5---|
A--10---5---7---5---3---2---5--10---3---5---3---3---3---3---3---3---5---5---|
E---8---7---5---3---1---0---------------3-----------1-------1---1---3---3---|
# chorus2 #B *=play 4X
E---------------------------------------------------------------------------|
B------------------------------------*-------*---*-------*------------------|
G----*-------*---*---*---*---*---*--5----*--5---5----*--5----*---*---*---*--|
D--10----*--7---5---3---2---0---5---5---5---5---5---3---5---3---3---5---5---|
A--10---5---7---5---3---2---0---5---3---5---3---3---3---3---3---3---5---5---|
E---8---7---5---3---1---0-------3-------3-----------1-------1---1---3---3---|
:
# chorus3 #A *=play 3X !B plays chorusB!
E---------------------------------------------------------------------|
B----------------*---*---*---*---*-------*---------------*------------|
G----*-------*-12--10---9---7--12----*-12----*---*---*--5---------5---|
D--10----*--7--12--10---9---7--12--10--12--10--10---3---5---3-3-5-5---|
A--10---5---7--10---8---7---5--10--10--10--10--10---3---3---3-3-5-3---|
E---8---7---5-----------------------8-------8---8---1-------1-1-3-----|




Ваше мнение



Капча