Date: Tue, 23 Dec 1997 14:37:20 -0600
From: synth
Subject: TAB: 'buggley eyes' by 'nofx'
ARTIST: NOFX
SONG: Buggley Eyes
ALBUM: White Trash, Two Heebs, and a Bean
TRANSCRIBED BY: Derek Miller ([email protected])
NOTES: These are all just regular chords, but i tabbed em out for slow people
(this song is also in the live album)
verse
C Em A F G C
|-----0-----0--0--0--0--0--1--1--3--3--0--------------------------------x2
|-----1-----0--2--2--2--2--1--1--3--3--1--------------------------------
|-----0-----1--2--2--2--2--2--2--4--4--0--------------------------------
|-----2-----2--2--2--2--2--3--3--5--5--2--------------------------------
|--3-----2-----0--0--0--0--3--3--5--5--3-----0--2--3--------------------
|--------------------------1--1--3--3-----3-----------------------------
did ya ever goto sleep with bo derek, and wake up with bo didley?
did ya ever goto sleep with bo derek, and wake up with bo didley?
chorus
C Em A F G
|--0-----0--0--0--|--0-----0--0--0--|--0-----0--0--0--|--1--1--3--3-----
|--1-----1--1--1--|--0-----0--0--0--|--2-----2--2--2--|--1--1--3--3-----
|--0-----0--0--0--|--1-----1--1--1--|--2-----2--2--2--|--2--2--4--4-----
|--2-----2--2--2--|--2-----2--2--2--|--2-----2--2--2--|--3--3--5--5-----
|--3-----3--3--3--|--2-----2--2--2--|--0-----0--0--0--|--3--3--5--5-----
|-----------------|-----------------|-----------------|--1--1--3--3-----
got so loaded you thought that shes the most beautiful girl you ever did see
C Em A F G C
|-----0-----0--0--0--0--0--1--1--3--3--0--------------|-----------------
|-----1-----0--2--2--2--2--1--1--3--3--1--------------|-----------------
|-----0-----1--2--2--2--2--2--2--4--4--0--------------|-----------------
|-----2-----2--2--2--2--2--3--3--5--5--2--------------|-----------------
|--3-----2-----0--0--0--0--3--3--5--5--3-----0--2--3--|-----------------
|--------------------------1--1--3--3-----3-----------|-----------------
well did ya ever goto sleep with bo derek, and wake up with bo didley?
trumpet solo with the verse and chorus x1
chorus
C Em A F G
|--0-----0--0--0--|--0-----0--0--0--|--0-----0--0--0--|--1--1--3--3-----
|--1-----1--1--1--|--0-----0--0--0--|--2-----2--2--2--|--1--1--3--3-----
|--0-----0--0--0--|--1-----1--1--1--|--2-----2--2--2--|--2--2--4--4-----
|--2-----2--2--2--|--2-----2--2--2--|--2-----2--2--2--|--3--3--5--5-----
|--3-----3--3--3--|--2-----2--2--2--|--0-----0--0--0--|--3--3--5--5-----
|-----------------|-----------------|-----------------|--1--1--3--3-----
woke up in the mornin to your surprise a couple melons in tube socks with buggley
eyes
C Em A F G C
|-----0-----0--0--0--0--0--1--1--3--3--0--------------|-----------------
|-----1-----0--2--2--2--2--1--1--3--3--1--------------|-----------------
|-----0-----1--2--2--2--2--2--2--4--4--0--------------|-----------------
|-----2-----2--2--2--2--2--3--3--5--5--2--------------|-----------------
|--3-----2-----0--0--0--0--3--3--5--5--3-----0--2--3--|-----------------
|--------------------------1--1--3--3-----3-----------|-----------------
well did ya ever goto sleep with bo derek, and wake up with bo didley?
thats it, if you got the album youll see how everything fits




Ваше мнение



Капча