Song : Bottles to the ground
Band : NOFX
Album: Pump up the Vallium
Tabbed by Rob Edmans, [email protected]
Intro
B---00--00--00--00--11--11--11--11-|
G---00--00--00--00--00--00--00--00-|}x2
D-22--22--22--22--22--22--22--22---|
Verse
B---00 ---00 ---00 ---00 ---11
G---00 ---00 ---00 ---00 ---00
D-22--}x4 -11--}x4 -00--}x4 -----}x4 -----}x8
A----- ----- ----- -44-- -33--
Chorus
G-------5----- ----5--|
D-5--3--5--5-- -7--5--|
A-5--3--3--5--}x3 -7--3--|
E-3--1-----3-- -5-----|
Bassy bridge thing
G-------5-- ------
D-5--7--5-- -5--6-
A-5--7--3--}x2 -5--6-
E-3--5----- -3--4-
Outro
G----------5- -5--------5-||
D-7--5--5--5- -5--7--5--5-||
A-7--5--5--3-}x4 -3--7--5--3-||
E-5--3--3---- ----5--3----||
I'm pretty sure they're right, but if they sound wrong, tell me.
I didn't do all the strings because I couldn't be arsed. I had to start all over
again cos I pressed backspace when the flashy thing wasn't on the text.




Ваше мнение



Капча