Song: Bleeding heart disease
Band: NoFX
Album: Heavy petting zoo
tabbed by: Carlos Pino
intro x2
G:---------------------------------------------------------------
D:---------------------------------------------------------------
A:--2-2-2-2-2--4-4-4-4-4---------------2-2-2-2-2------
E:-------------------------------0-0-0-0-0--------------------
how money...
verse
G:-----¦----------------------------------------------------------
D:-----¦----------------------------------------------------------
A:-----¦----------------------------------------------------------
E:-7>-¦-7-7-7-7--7-7-7-7--6-6-6-6-4-4-4-4-2-2-2-2-0-0-0-0-03-3-3-3-3-3-3
G:---------------------------------------------------------------
D:---------------------------------------------------------------
A:----------------------2-2-2-2-1-1-1-1-----------------------
E:-4-4-4-4-0-0-0-0-----------------------5-5-5-5-4-4-4-4
G:---------------------------------------------------------------
D:---------------------------------------------------------------
A:-------------7-7-7-7---------------------------------------------
E:-4-4-4-4-------------7-7-7-7--6-6-6-6-5-5-5-5-4-4-4-4
the ' doo doo doo' part
G:---------------------------------------------------------------
D:---------------------------------------------------------------
A:--------------------7-7--------------------------------------
E:-7-7--7-7--5-5--------------------------------------------
then after
G:---------------------------------------------------------------
D:---------------------------------------------------------------
A:----------------------------------7-7-7-7-------------------
E:-7-7-7-7-6-6-6-6-4-4-4-4-------------------------------
then just play the other parts again




Ваше мнение



Капча