Song:BEER BONG
Band:NOFX
Album:LIBERAL ANIMATION
Tabbed by:MOKE

G:--------------------------------------------------------------
D:--------------------------------------------------------------
A:--------------3-3-3--------------5-5-5--------------7-7-7---
E:--------- -----------------------------------------------------

VERSE:
G:----------------------
D:----------------------
A: ------5--7--7--7--7-
E:---------------------

CHORUS:
G:------------------------------------------
D :------------------------------------------
A: --2--2- -2--3--3--3--3--5--5--5--5----7-
E:-----------------------------------------
OUTRO:
G:----------------------------------------
D:----------------------------------------
A: ----5-/-7----5-/-7------7--7--7--7--7-
E:- ---------------------------------------




Ваше мнение



Капча