BEAST WITHIN by NOFX. Album: Maximum Rockroll (1988)
Quite a beast! clear
:
# intro # X6 !GuitarB plays X5 and takes pauses and goes octave after 3X!
E----------------------------------------------------------------------------|
B----------------------------------------------------------------------------|
G---12-12-12-12-11-11-11-11-9-9-9-7-7-7-7-7----------------------------------|
D---12-12-12-12-11-11-11-11-9-9-9-7-7-7-7-7-5-5-5-5-4-4-4-4-2-2-2-2-2-2-2-2--|
A---10-10-10-10--9--9--9--9-7-7-7-5-5-5-5-5-5-5-5-5-4-4-4-4-2-2-2-2-2-2-2-2--|
E-------------------------------------------3-3-3-3-2-2-2-2-0-0-0-0-0-0-0-0--|

:
# chorus # X2
E------------------------------------------|
B------------------------------------------|
G---7-7-----12-11-9-9--7-7-----------------|
D---7-7-7-7-12-11-9-9--7-7-7-7--5--4-2-2---|
A---5-5-7-7-10--9-7-7--5-5-7-7--5--4-2-2---|
E-------5-5----------------5-5--3--2-0-0---|
:
# bridge # X4
E---------------------------------|
B---------------------------------|
G---12-12-11-11-9-9-7-7-9-9-9-9---|
D---12-12-11-11-9-9-7-7-9-9-9-9---| > Then play intro X2.
A---10-10--9--9-7-7-5-5-7-7-7-7---|
E---------------------------------|
:
# outro # %=pause
E-------------------------------------------|
B-------------------------------------------|
G---12-12-11-11-9---------------------------|
D---12-12-11-11-9-------5-5-4-4-2-2-2-2-2---|
A---10-10--9--9-7-%%%%%-5-5-4-4-2-2-2-2-2---|
E-----------------------3-3-2-2-0-0-0-0-0---|
:
Arriva, arriva...!
Tabbed by Jussi Heinonen 08.05.1998.




Ваше мнение



Капча