THE BAG by NOFX. Album : White trash, two heebs and a bean (1992) 1/3
Weird riffs I must say!
A=Melvin B=El Hefe A&B=both
:
# intro #A X2 *=play 6X # verse #A&B *=play 6X
E-------------------| E--------------------------------------|
B-------------------| B----*---------------*-----------------|
G----*-------*---*--| G---7--------*---*--7--------*---*-----|
D---7----*--2---2---| D---7----*--2---7---7----*--2---2--2---|
A---5---2---3---3---| A---5---2---3---7---5---2---3---3--0---|
E-------3-----------| E-------3-------5-------3--------------|
:
# verse2 #A&B (Although I find myself right back...)
E-----------------------------------|
B-----------------------------------|
G----*-------*---*---*---*----------|
D---7----*--7---7---2---2----*---*--| > Then play verseA&B.
A---7---2---8---8---3---3---2---2---|
E---5---3-------------------3---3---|
:
# verse3 #A&B (Who are talking about me...)
E-----------------------------------|
B-----------------------------------|
G----*-------*---*---*---*----------|
D---7----*--7---7---7---7----*---*--|
A---8---2---7---7---8---8---2---2---|
E-------3---5---5-----------3---3---|
:
# chorus #A *=play 6X (Worth content...)
E-------------------------------------------------------------------------|
B--------------------*----------------------------------------------------|
G----*-------*------5-----5-5-5--------*-------*-------*------------------|
D---3-------5-------5-----5-5-5-5-5-5-3-------5-------7-----7-7-7-5-5-5---|
A---3-------5-------3-----3-3-3-5-5-5-3-------5-------7-----7-7-7-5-5-5---|
E---1-------3-------------------3-3-3-1-------3-------5-----5-5-5-3-3-3---|
# chorus #B *=play 6X b=bend-up to next note r=release bend
E-------------------------------------------------------------------------|
B--------------------*----------8-------------------------8-10-10b12r-8-10|
G----*-------*------5-----7b9-----7r--5--------*--------------------------|
D---3-------5-------5-------------------------5-------7-------------------|
A---3-------5-------3-------------------------5-------7-------------------|
E---1-------3---------------------------------3-------5-------------------|
:
# end-chorus #A&B (Hear the same things every night...)
E----------------------------------------------|
B-------------------*--------------------------|
G---*-------*------5--------*-------*-------*--|
D--3-------5-------5-------3-------3-------5---|
A--3-------5-------3-------3-------3-------5---|
E--1-------3---------------1-------1-------3---|
:
# bridge #A %=pause > t
E-----------------------------------------------------> o
B----------------------------------------------------->
G---5-5-5-5-----5-5-5-5-----5-5-5-5-----5-7-5-4-5-4---> n
D---5-5-5-5-----5-5-5-5-----5-5-5-5-----5-7-5-4-5-4---> e
A---3-3-3-3-%%%-3-3-3-3-%%%-3-3-3-3-%%%-3-5-3-2-3-2---> x
E-----------------------------------------------------> t
# bridge #B >
E------------------------------------------------------------- . p
B------------------------------------------------------------- . a
G---5-5-5-5-----5-5-5-5-----5-5-5-5-----5-7-5-4-5-4----------- . g
D---5-5-5-5-----5-5-5-5-----5-5-5-5-----5-7-5-4-5-4----------- . e
A---3-3-3-3-%%%-3-3-3-3-%%%-3-3-3-3-%%%-3-5-3-2-3-2---> -- .
E------------------------------------------------------------- . :
:
:
:
THE BAG 2/3
:
>bridgeA
>-----------------------------------------------------|
>-----------------------------------------------------|
>-----------------------------------------------------|
>-----------------------------------------------------|
>---3-3-3-3-%%%-2-2-2-2-%%%-3-3-3-3-%%%-3-5-3-2-3-2---|
>-----------------------------------------------------|
>bridgeB
>-----------------------------------------------------|
>-----------------------------------------------------|
>---------------------------------------5-7-5-4-5-4---|
>---7-7-7-7-----5-5-5-5-----3-3-3-3-----5-7-5-4-5-4---|
>---7-7-7-7-%%%-5-5-5-5-%%%-3-3-3-3-%%%-3-5-3-2-3-2---|
>---5-5-5-5-----3-3-3-3-----1-1-1-1-------------------|
:
# bridge2 #A X3 *=play 6X (Give me something..)
E-------------------------------|
B-------------------------------|
G-------------------------------|
D----*-------*-------*-------*--|
A---3-------2-------3-------2---|
E-------------------------------|
# bridge2 #B X3 *=play 6X
E-------------------------------|
B-------------------------------|
G----*-------*-------*-------*--|
D---7-------5-------3-------5---|
A---7-------5-------3-------5---|
E---5-------3-------1-------3---|
:
: !GuitarB plays bridge2B X2 (let last note ring)!
# solo #A b=bend-up to next note h=hammer-on p=pull-off >
E-----------5------------------------------------------------------->
B-----------5-8-5--------------------------------------------------->
G---7b9-----------8-7-5-----5-------5---------------------5---5----->
D-----------------------7-5---7-5-7---7-5-------------5h7---7---7--->
A-----------------------------------------7-6-5-3------------------->
E------------------------------------------------------------------->
>soloA
>-----------------------------------------------------|
>---------------------10p8---10p8---------------------|
>-------5---5-----5-7------9------9-9-8-7b9---7-5-7---|
>---5h7---7---7---------------------------------------|
>-----------------------------------------------------|
>----------------------play-fast-----/---------------|
:
# verse4 #A&B *=play 6X (As I watch the people pass...)
E-----------------------------------|
B----*---------------*--------------|
G---7--------*---*--7--------*---*--|
D---7----*--2---7---7----*--2---7---| > Then play verse3A&B and chorusA or
A---5---2---3---7---5---2---3---7---| chorusB.
E-------3-------5-------3-------5---|
:
>>>>>>>>>>to next page...
:
:
:
:
:
:
:
:
:
:
:
THE BAG 3/3
:
# end-chorus #A (Hear the same things every night...) *=play 6X %=pause
E--------------------------/-------------palm-muted-------------------------|
B----------------------------------------------------------------------------|
G---*-------*------5-------------------------------------------------------5-|
D--3-------5-------5-------------------------------------------------------5-|
A--3-------5-------3-%%%%%%3-3-3-3-3-3-3-3-3-3-3-3-3-3-3-3-5-5-5-5-5-5-5-5-3-|
E--1-------3---------------1-1-1-1-1-1-1-1-1-1-1-1-1-1-1-1-3-3-3-3-3-3-3-3---|
# end-chorus #B *=play 6X %=pause
E----------------------------------------------------------------------------|
B----------------------------------------------------------------------------|
G---*-------*------5---------------------------------------------------------|
D--3-------5-------5---------------------------------------------------------|
A--3-------5-------3-%%%%%%%%%%%%%%%%%%%%%%%%%%%%%%%%%%%%%%%%%%%%%%%%%%%%%%%-|
E--1-------3-----------------------------------------------------------------|
:
There!
Tabbed by Jussi Heinonen 24.05.1998.




Ваше мнение



Капча