August 8th -NoFx
---------------------------------------------------------
Tabbed by: Jobs ([email protected])

Intro- clean
e:---------------------------------------------------------------|
B:---------------------------------------------------------------|
G:--------5------------------------------------------------------|
D:------5---5---------5----------7---------5---------------------|
A:----3-------------5---5------7---7-----5---5-------------------|
E:----------------3----------5---------3-------------------------|

e:---------------------------------------------------------------|
B:---------------------------------------------------------------|
G:-------5------------------------------5------------------------|
D:-----5---5---------5----------3-------5------------------------| times2
A:---3-------------5---5------3---3-----3------------------------|
E:---------------3----------1------------------------------------|
Verse: Distortion
e:---------------------------------------------------------------|
B:---------------------------------------------------------------|
G:----5----------------------------5-----------------------------|
D:----5---5----777---5----555------5--5---333--------------------|
A:----3---5----777---5----555------3--5---333--------------------|
E:--------3----555---3----333---------3---111--------------------|
?what going on?? Palm Mute (distortion)strum each chord 6 times
e:---------------------------------------------------------------|
B:---------------------------------------------------------------|
G:------5--7--4--------------------------------------------------|
D:---2--5--7--4--------------------------------------------------|
A:---2--3?-5--2--------------------------------------------------|
E:---0-----------------------------------------------------------|
E C D B
Intro X2
Verse X2
P.M. X2
Intro X2
Verse X2
P.M. X2
Intro X1

End on C

Questions? Email me




Ваше мнение



Капча