ANT ATTACK by NOFX. Album: Maximum Rocknroll (1988)
Name fits again!
:
# intro #
E----------------------------------------------------------------------------|
B---------------------------------5-----------2------------------------------|
G-------------------------------5---5-------2---2---------------------4------|
D-----------------------------5-------5---2-------2-----------------5---5----|
A---3-3-3-3-3-3-2-2-2-2-2-2-3-----------0-----------2-2-2-2-2-2---5-------5-0|
E---------------------------------------------------------------3------------|
:
# pre-verse # X4
E--------------------|
B--------------------|
G--------------------|
D---7-------9-10-9---|
A---7-------9-10-9---|
E---5-------7--8-7---|
:
# verse # X4 # verse2 # X2 # outro #
E----------------| E----------------| E----------------------------|
B----------------| B----------------| B----------------------------|
G----------------| G---7-7-7-9-12---| G---7-7-7-5----7-7-7-5-------|
D---7-7-7-9-10---| D---7-7-7-9-12---| D---7-7-7-5-5--7-7-7-5-5-7---|
A---7-7-7-9-10---| A---5-5-5-7-10---| A---5-5-5-3-5--5-5-5-3-5-7---|
E---5-5-5-7--8---| E----------------| E-----------3----------3-5---|
:
Yes!
Tabbed by Jussi Heinonen 10.05.1998.




Ваше мнение



Капча