AND NOW FOR SOMETHING COMPLETELY SIMILAR - NOFX
By:Joey Laffradi
[email protected]
Intro 1st G. pt.1 pt.2 2nd G.
e|-----------------|---------------|-----------------------------------------|
B|-----------------|---------------|-----------------------------------------|
G|-7---5-7----5----|-7-8-7-6-5-----|-16-15-15-14-12--------------------------|
D|-5(6)5-5(2)-5(3)-|-x-x-x-x-5(12)-|--x--x--x--x--x(6)-----------------------|
A|-----------------|-5-6-5-4-3-----|-14-13-13-12-10--------------------------|
E|-----------------|---------------|-----------------------------------------|
Verse
e|---------------------------------------------------------------------------|
B|---------------------------------------------------------------------------|
G|-7----5-7----5-5-7----5-5-7-7-7-5-5-7----5-4---5----7----------------------|
D|-5(6)-5-5(2)-5-5-5(5)-5-5-5-5-5-5-5-5(5)-5-5-5-5(6)-7(6)-------------------|
A|---------------------------------------------7-----------------------------|
E|---------------------------------------------------------------------------|
pt.1 intro
outro 1st. G. 2nd G.
e|----------|-----------------------------------------------------------------|
B|----------|-----------------------------------------------------------------|
G|----------|-12-12-12-12-----------------------------------------------------|
D|-5-5-5-5--|-12-12-12-12-----------------------------------------------------|
A|-5-5-5-5--|-10-10-10-10-----------------------------------------------------|
E|-3-3-3-3--|-----------------------------------------------------------------|
any requests, comments or corrections, e-mail me




Ваше мнение



Капча