Nofx - The War On Errorism
American Errorist (I Hate Hate Haters)
It isn't 100% right, but...
-------------------------------------------------------------------------------
American Errorist - NOFX
-------------------------------------------------------------------------------
Tabbed by: ScH
Email: [email protected]
Tuning: Standart E
* Palm Mute
Intro - 2x
e|---------------------------------------------------------------------------|
B|---------------------------------------------------------------------------|
G|---9--9-9-9-9-9-9-9--9--9-9-9-9-9-9-9-9--9---------------------------------|
D|---9--9-9-9-9-9-9-9--9--9-9-9-9-9-9-9-9--9---------------------------------|
A|---7--7*7*7*7*7*7*7*-7--7*7*7*7*7*7*7*7*-7---------------------------------|
E|---------------------------------------------------------------------------|
Bridge - 4x
e|---------------------------------------------------------------------------|
B|---------------------------------------------------------------------------|
G|---------------------------------------------------------------------------|
D|---------------------------------------------------------------------------|
A|---------------------------------------------------------------------------|
E|--0*0*0*0*0*0*-3*3*3*-5*5*5*---0*0*0*0*0*0*-3*3*3*-5*5*5*------------------|
Verse - 4x
e|---------------------------------------------------------------------------|
B|---------------------------------------------------------------------------|
G|--9-9-9-9-9-9-9-9-9-9-9-9--------------------------------------------------|
D|--9-9-9-9-9-9-9-9-9-9-9-9--1010101010101010101010--------------------------|
A|--7-7-7-7-7-7-7-7-7-7-7-7--1010101010101010101010--------------------------|
E|----------------------------8-8-8-8-8-8-8-8-8-8-8--------------------------|
Chorus
e|---------------------------------------------------------------------------|
B|---------------------------------------------------------------------------|
G|---------------------------------------9-9-9-9-9-9-9-9---5-5-5-5-5-5-5-5---|
D|--5-5-5-5-5-5-5-5---5-5-5-5-5-5-5-5-5--9-9-9-9-9-9-9-9---5-5-5-5-5-5-5-5---|
A|--5-5-5-5-5-5-5-5---5-5-5-5-5-5-5-5-5--7-7-7-7-7-7-7-7---3-3-3-3-3-3-3-3---|
E|--3-3-3-3-3-3-3-3---2-2-2-2-2-2-2-2-2--------------------------------------|




Ваше мнение



Капча