-----------------------------------------------------------------------------
All Outta Angst-NOFX
------------------------------------------------------------------------------

riff 1

G-------------------------------------------------------------
D ----2--3--2---5--3--2--0----------0--2--3--2--0--2 (x2)
A -3-----------------------------0--3-----------------------
E-------------------------------------------------------------

riff 2

G -------------------------------------------------------2--0----------
D ----2--3--2---5--3--2--0--2--3--2--3--2--0----0-----3--2--3--2--2--0(h)--333-2--0
A -3------------------------------------------------3------------------------3--
E -----------------------------------------------------------------------------

riff 3

G ---------------------------------------------------------------------------
D ---2--3--2--5--3--2--0--2--3--2--3--2--0--0-----------------------
A -3-------------------------------------------3--00000000-----
E ---------------------------------------------------------33333333--11111111--33333333

then ...

riff 1 (x6)
riff 2
riff 3
riff 1 (x6)
end on C on the A string

Well that's it. Have fun,
Ryan




Ваше мнение



Капча