-------------------------------------------------------------------------------
SONG NAME - Band Name
-------------------------------------------------------------------------------
Tabbed by: Martin Hanger
Email: [email protected]
Verse:
e|---------------------------------------------------------------------------|
B|---------------------------------------------------------------------------|
G|---------------------------------------------------------------------------|
D|---10---7---------10----7-----8----10---12----10----8----11----------------|
A|---8----5----8----8-----5-----8----10---12----10----8----9-----------------|
E|-------------6----------------6----8----10----8-----6----9-----------------|
Bridge:
a|---------------------------------------------------------------------------|
B|---------------------------------------------------------------------------|
G|---10---10---10---7--------------------------------------------------------|
D|---10---10---10---7--------------------------------------------------------|
A|----8---10----8---5--------------------------------------------------------|
E|---------------------------------------------------------------------------|
Chorus:
a|--------------------------------|
B|--------------------------------|
G|--------------------------------|
D|---8------3------10-----12------|
A|---8------3------10-----12------|
E|---6------1------8-------9------|
a|--------------------------------|
B|--------------------------------|
G|--------------------------------|
D|---8------8------10-----12------|
A|---8------8------10-----12------|
E|---6------5------8------10------|
a|--------------------------------|
B|--------------------------------|
G|--------------------------------|
D|---8------3------10-----12------|
A|---8------3------10-----12------|
E|---6------1------8------10------|
a|------------|
B|------------|
G|------------|
D|8------11~--|
A|8------11~--|
E|6-------9~--|
Ending:
E|-----------------|
A|-----------------|
D|-----------------|
G|---8~--11~--3~---|
B|---8~--11~--3~---|
E|---6~--9~---1~---|




Ваше мнение



Капча