A200 CLUB by NOFX. Album : Liberal animation (1988)

I tabbed the solo, but there are only main notes in it, because those Dave
tilu-lilu solos are little bit tough to tab by note to note.

A=Dave B=Melvin A&B=both
:
# intro #A&B %=pause /x=B takes pick-slide
E----------------------------------------------/------------|
B------------------------------------------------------------|
G---7-9----------5---5-------------7-9---------5---5---------|
D---7-9----------5-5-5-5-5-5-2-----7-9-----5---5-5-5-5-5-5---|
A---5-7-%%%%%%%%-3-5-3-5-5-5-2-%%%-5-7-%%%-5---3-5-3-5-5-5---|
E------------------3---3-3-3-0-------------3-----3---3-3-3---|
:
# verse #A&B X4
E---------------------------------------------------|
B---------------------------------------------------|
G-----------7-9-9-9-9-9-9-------------5---5---------|
D---2-2-2-2-7-9-9-9-9-9-9-5-5-5-5-5-5-5-5-5-5-5-5---|
A---2-2-2-2-5-7-7-7-7-7-7-5-5-5-5-5-5-3-5-3-5-5-5---|
E---0-0-0-0---------------3-3-3-3-3-3---3---3-3-3---|
:
# chorus #A *=play 6X >
E---------------------------------------------------------------------------->
B---------------------------------------------------------------------------->
G----*-----------------------*-----------------------*----------------------->
D---2-----------------------5-----------------------7------------------------>
A---2-----------------------5-----------------------7------------------------>
E---0-----------------------3-----------------------5------------------------>
# chorus #B p=pull-off >
E---------------------------------------------------------------------------->
B--10p9p710p9p710p9p710p9p710p9p710p9p710p9p710p9p710p9p710p9p710p9p710p9p7-->
G---------------------------------------------------------------------------->
D---------------------------------------------------------------------------->
A---------------------------------------------------------------------------->
E---------------------------------------------------------------------------->
>chorusA
>---------------------------------------|
>---------------------------------------|
>--12--11-------------------------------|
>--12--11-------------------------------|
>--10---9---7-------9------10------12---|
>---------------------------------------|
>chorusB
>---------------------------------------|
>---------------------------------------|
>--12--11-------------------------------|
>--12--11-------------------------------|
>--10---9---7-------5-------3-------2---|
>---------------------------------------|
:
Then play AverseA&BX2 or BintroA&B, A&BverseA&BX4 and AchorusA or BchorusB.
:
# bridge #B !A plays introA&B!
E------------------------------------------------------------------|
B------------------------------------------------------------------|
G---Play-------------------7-9----------------------5---5---------|
D---verseA&B-------2-2-2-2-7------------5-5-5-5-5-5-5-5-5-5-5-5---|
A------------------2-2-2-2-5-7----------5-5-5-5-5-5-3-5-3-5-5-5---|
E------------------0-0-0-0---------------3-3-3-3-3-3---3---3-3-3---|
:
:
# solo #A h=hammer-on p=pull-off b=bend-up to next note
E--------12----12|-----12--------15----------------|--->
B---2/12----12---|12h15--15-15h17--17--------------|--->
G----------------|--------------------15p14p12-12-|--->
D----------------||-------|-|-------|-|------|-----|--->
A----------------|---4X--/----4X--/---2X--/-----|--->
E----------------|----P-----A-----R-----T-----1----|--->
# solo-background #B >
E------------------------------------------------------>
B------------------------------------------------------>
G--------------------------------------5--------------->
D---2------------------------5---------5--------------->
A---2------------------------5---------3--------------->
E---0------------------------3------------------------->
>soloA
>-|-----12-------------------------|-----15----------------|-----------------|
>-|12h15--15-----------------------|15h17--17-151412-------|20p19p17-17171717
>-|----------15p14p12-14b1514121412|----------------151412|-----------------|
>-|--------------------------------|-----------------------|-----------------|
>-|--6X---/---4X--/--------------|--8X---/--------------|--10X-/---------|
>-|---P-----A-----R-----T-----2----|---P---A---R---T---3---|---P--A--R--T--4-|
>solo-background #B
E----------------------------------------------------------------------------|
B----------------------------------------------------------------------------|
G---------------------------5------------------------5--------------------5--|
D---2---------------5-------5--------2---------5-----5-------2--------5---5--|
A---2---------------5-------3--------2---------5-----3-------2--------5---3--|
E---0---------------3----------------0---------3-------------0--------3------|
:
Then play AchorusA or BchorusB,
:
# outro #A !B plays introA&B!
E------------------------------------------------------------------|
B------------------------------------------------------------------|
G---Play-------------------7-9-----------------------5---5---------|
D---verseA&B-------2-2-2-2-7-------------5-5-5-5-5-5-5-5-5-5-5-5---|
A------------------2-2-2-2-5-7-----------5-5-5-5-5-5-3-5-3-5-5-5---|
E------------------0-0-0-0---------------3-3-3-3-3-3---3---3-3-3---|
:
# end-note #A&B
E-------|
B-------|
G-------|
D---2---|
A---2---|
E---0---|
:
Whew!
Tabbed by Freddy Allen 3.4.2003




Ваше мнение



Капча