e: Mon, 08 Jun 1998 04:52:09 -0400
From: Ska dudo
Subject: n/nofx/180_degrees.tab
180 degrees - nofx
-----------------------------------------------------------------------------
intro:
Gtr. 1
e|--------------------------------------------------------------------|
B|--------------------------------------------------------------------|
G|-----------------------------------10-10--10------------------------|
D|---10-10--8---10-10--10--6--6---6--10-10--10------------------------|
A|---10-10--8---10-10--10--6--6---6--8--8---8-------------------------|
E|---8--8---6---8--8---8---4--4---4-----------------------------------|
gtr.2: let it ring |
e|--------------------------------------------------------------------|
B|--------------------------------------------------------------------|
G|----5---------------------------------------------------------------|
D|----5---------------------------------------------------------------|
A|----3---------------------------------------------------------------|
E|--------------------------------------------------------------------|
Gtr. 1
e|--------------------------------------------------------------------|
B|--------------------------------------------------------------------|
G|-----------------------------------6--6---6-------------------------|
D|---10-10--8---10-10--10--5--5---5--6--6---6-------------------------|
A|---10-10--8---10-10--10--5--5---5--4--4---4-------------------------|
E|---8--8---6---8--8---8---3--3---3-----------------------------------|
Gtr.2 pm.... |
e|--------------------------------------------------------------------|
B|--------------------------------------------------------------------|
G|-----------------------------------6--6--6--6-----------------------|
D|-----------------------------------6--6--6--6-----------------------|
A|-----------------------------------4--4--4--4-----------------------|
E|--------------------------------------------------------------------|
e|--------------------------------------------------------------------|
B|--------------------------------------------------------------------|
G|-----------------------------------10-10--10------------------------|
D|---10-10--8---10-10--10--6--6---6--10-10--10------------------------|
A|---10-10--8---10-10--10--6--6---6--8--8---8-------------------------|
E|---8--8---6---8--8---8---4--4---4-----------------------------------|
gtr.2: let it ring |
e|--------------------------------------------------------------------|
B|--------------------------------------------------------------------|
G|----5---------------------------------------------------------------|
D|----5---------------------------------------------------------------|
A|----3---------------------------------------------------------------|
E|--------------------------------------------------------------------|
Gtr. 1
e|--------------------------------------------------------------------|
B|--------------------------------------------------------------------|
G|-----------------------------------6--6---6-------------------------|
D|---10-10--8---10-10--10--5--5---5--6--6---6-------------------------|
A|---10-10--8---10-10--10--5--5---5--4--4---4-------------------------|
E|---8--8---6---8--8---8---3--3---3-----------------------------------|
gtr.2
e|--------------------------------------------------------------------|
B|--------------------------------------------------------------------|
G|---5--5-------------------------------------------------------------|
D|---5--5-------------------------------------------------------------|
A|---3--3-------------------------------------------------------------|
E|--------------------------------------------------------------------|

now both gtrs play gt.1's stuff together
ska part....
guitar 2 does the chords. while gtr 1 plays a few notes that i didnt
bother to
tab out..
e|-8--8--8--8--8---/7--7--7--7--7--7---/10--10--10--10-----------8--8--10--10|
B|-8--8--8--8--8---/8--8--8--8--8--8---/10--10--10-----10----10--8--8--12--12|
G|-9--9--9--9--9---/7--7--7--7--7--7---/10--10--10--------10-----------------|
D|---------------------------------------------------------------------------|
A|---------------------------------------------------------------------------|
E|---------------------------------------------------------------------------|

"it's so easy to defend the Status Quo, with everyone so cool and
cynical"
e|-8--8--8--8--8---/7--7--7--7--7--7---/10--10--10--10-----------8--8--10--10|
B|-8--8--8--8--8---/8--8--8--8--8--8---/10--10--10-----10----10--8--8--12--12|
G|-9--9--9--9--9---/7--7--7--7--7--7---/10--10--10--------10-----------------|
D|---------------------------------------------------------------------------|
A|---------------------------------------------------------------------------|
E|---------------------------------------------------------------------------|

"But when you see the end don't justify the means, It's just that 180
degrees"
e|---8--8--8--8--8-----/7--7--7-------------/10--10--10--10--10--10----------|
B|---8--8--8--8--8-----/8--8-----8-----8----/10--10--10--10--10--10----------|
G|---9--9--9--9--9-----/7--7--------7-------/10--10--10--10--10--10----------|
D|---------------------------------------------------------------------------|
A|---------------------------------------------------------------------------|
E|---------------------------------------------------------------------------|
throw this on to the end of the last measure.
its the bulid up to the "fast" part.
both gtrs.
e|----------------------------------------------------------------|
B|----------------------------------------------------------------|
G|5-5-5-5-5-5-5-5-------------------------------------------------|
D|5-5-5-5-5-5-5-5-------------------------------------------------|
A|3-3-3-3-3-3-3-3-------------------------------------------------|
E|----------------------------------------------------------------|
now the chords for the verse...gtr. 1
C G (with gtr.2 fill)
The great thing about bein' a human
D Fii
The ability to reason
C G (with fill again)
But reasoning don't work when no one cares
D Fii
2 parts apathy, one part despair

gtr.2 fill
e|--------------------------------------------------------------------|
B|--------------------------------------------------------------------|
G|----12--12---12--10-10--10-9--9---9--10-----------------------------|
D|--------------------------------------------------------------------|
A|----10--10---10--8--8---8--7--7---7--8------------------------------|
E|--------------------------------------------------------------------|
break between verse.
together
gtr.2
e|--------------------------------------------------------------------|
B|--------------------------------------------------------------------|
G|-10--9---7---5--5--5--7--5----10-10--10-10--10-9-9---9-10-9--7--5---|
D|--------------------------------------------------------------------|
A|-8---7---5---3--3--3--5--3----8--8---8--8---8--7-7---7-8--7--5--3---|
E|--------------------------------------------------------------------|
gt.1 |
e|--------------------------------------------------------------------|
B|--------------------------------------------------------------------|
G|-10--9---7---5--------------------------------5--5--5--5--5--5--5---|
D|-10--9---7---5--------------------------------5--5--5--5--5--5--5---|
A|-8---7---5---3--------------------------------3--3--3--3--3--3--3---|
E|--------------------------------------------------------------------|
gtr.2
e|--------------------------------------------------------------------|
B|--------------------------------------------------------------------|
G|----5--5--5--7--5----10-10--10-10--10-9-9---9-10-9--7--5------------|
D|--------------------------------------------------------------------|
A|----3--3--3--5--3----8--8---8--8---8--7-7---7-8--7--5--3------------|
E|--------------------------------------------------------------------|
gt.1 |
e|--------------------------------------------------------------------|
B|--------------------------------------------------------------------|
G|----5----------------7----------------6----------------5------------|
D|--------------------------------------------------------------------|
A|----3----------------5----------------4----------------3------------|
E|--------------------------------------------------------------------|
verse 2
C G (with gt2 fill)
Guess what, this might come as a surprise
D Fii
I'll no longer roll my eyes
C G (fill again)
A change of heart to let the conscience breath
D Fii
One quick twist, just 180 degrees
both gtrs
e|--------------------------------------------------------------------|
B|--------------------------------------------------------------------|
G|-10--9---7---5--5--5--5--5--5--5------------------------------------|
D|-10--9---7---5--5--5--5--5--5--5------------------------------------|
A|-8---7---5---3--3--3--3--3--3--3------------------------------------|
E|--------------------------------------------------------------------|
C G D Fii
Yeah, I now know the right thing to do
C G D Fii
Yeah, anti tradition tried and true
C G D Fii
Yeah, a world where wrong has right of way
C G Fii
Yeah, fuck that world, fuck that heirarchy
outro...
"Go ahead, work, waste your life away, Fuck that world, go fuck that
right away"
e|-8--8--8--8--8---7--7--7--7--7--7---10--10--10--10--10--10----8--8---10--10|
B|-8--8--8--8--8---8--8--8--8--8--8---10--10--10--10--10--10---10-10---10--10|
G|-9--9--9--9--9---7--7--7--7--7--7---10--10--10--10--10--10-----------------|
D|---------------------------------------------------------------------------|
A|---------------------------------------------------------------------------|
E|---------------------------------------------------------------------------|
e|---8\--|
B|---8\--|
G|---9\--|
D|-------|
A|-------|
E|-------|
the end.
by the way this is my first tab and it took me at least 3 hours to
figure out the song
and make sure tab and song were perfect. but of course i gave up.
everything here seams
right to me except the ska part in the begining, those last two chords
just aren't right
but that was as close as i could get. so if you want to post this up on
your web page or
send it to someone...
email me because i would be interested where this appears in how long.
please leave it intact and try not to change anything. if there are
corrections that need to be made send 'em to me.
and i want my due credit since this took so damn long
moi 5/17/98
http://www.fortunecity.com/tinpan/stonetemple/246/index.html
=============================================================================


Ваше мнение



Капча