180 degrees by NOFX. Album : So long and thanks for all the shoes (1997)

Great kick-ass feeling!
A=Melvin B=EL Hefe A&B=both
:
# intro #A /x=palm-muted %=pause >
E---------------------------------------------/---->
B--------------------------------------------------->
G---5-----------------------------------------6-6-6->
D---5-----------------------------------------6-6-6->
A---3-----------------------------------------4-4-4->
E--------------------------------------------------->
# intro #B >
E--------------------------------------------------->
B--------------------------------------------------->
G------------101313131010-8-5-5-5-3-5---------6-6-6->
D--101010-810101313131010-8-5-5-5-3-5-3-5-5-5-6-6-6->
A--101010-810-8111111-8-8-6-3-3-3-1-3-3-5-5-5-4-4-4->
E---8-8-8-6-8-------------------------1-3-3-3------->
>introA
>-----------------------------------------------------|
>-----------------------------------------------------|
>---5-----------------------5-5-----------------------|
>---5-----------------------5-5-----------------------|
>---3-----------------------3-3-%%%%%%%%%%%%%%%%%%%%%-|
>-----------------------------------------------------|
>introB
>-----------------------------------------------------|
>-----------------------------------------------------|
>------------101313131010-8-5-5-5-3-5---------6-6-6---|
>--101010-810101313131010-8-5-5-5-3-5-3-5-5-5-6-6-6---|
>--101010-810-8111111-8-8-6-3-3-3-1-3-3-5-5-5-4-4-4---|
>---8-8-8-6-8-------------------------1-3-3-3---------|
:
Then play A&BintroB.
:
# ska-verse #A *=play 8X #=play 4X >
E---8-------------7------------101010------10-8-----10--->
B---8-------------8------------1010--10--10---8------8--->
G----*-------------*-------------------10------#------#-->
D-------------------------------------------------------->
A-------------------------------------------------------->
E-------------------------------------------------------->
# ska-verse #B >
E-------------------------------------------------------->
B---------------6-6-----------6-6-----------6-6---------->
G---------------5-7-----------5-7-----------7-5---------->
D-------------------------------------------------------->
A-------------------------------------------------------->
E-------------------------------------------------------->
>ska-verseA >
>---8-------------7-----/7-----10-------------8-----10--->
>---8-------------8-----/8-----10-------------8------8--->
>----*-------------#------#------*-------------#------#-->
>-------------------------------------------------------->
>-------------------------------------------------------->
>-------------------------------------------------------->
>ska-verseB >
>-------------------------------------------------------->
>-5-6-----------6-6-----------6-6-----------6-6---------->
>-5-7-----------5-7-----------5-7-----------7-5---------->
>-------------------------------------------------------->
>-------------------------------------------------------->
>-------------------------------------------------------->
:
:
>ska-verseA
>---8-------------7-7-7-------710-------------/palm-muted----|
>---8-------------8-8---8---8--10-----------------------------|
>----*--------------------7------*----------------------------|
>---------------------------------------------3333333333333---|
>---------------------------------------------3333333333333---|
>---------------------------------------------1111111111111---|
>ska-verseB
>---------------------------------------------/palm-muted----|
>-5-6-----------6-6-----------6-6-----------------------------|
>-5-7-----------5-7-----------5-7-----------------------------|
>---------------------------------------------3333333333333---|
>---------------------------------------------3333333333333---|
>---------------------------------------------1111111111111---|
:
# verse #A >
E------------------------------------------->
B----------------------------*-----------*-->
G----*----------------------7----------10--->
D--10------------*----------7----------10--->
A--10-----------5-----------5-----------8--->
E---8-----------7--------------------------->
# verse #B *=play 12X +=play 6X #=play 3X>
E------------------------------------------->
B----------------------------------------*-->
G----*---------------------------------10--->
D--10------------#--#--#--#--*---------10--->
A--10-----------5-10--8--7--8-----------8--->
E---8-----------7--------------------------->
>verseA
>---------------------------------------------/mute---------|
>----------------------------*-----------+-------------------|
>----*----------------------7----------10-----99999910-9-7---|
>--10------------*----------7----------10-----99999910-9-7---|
>--10-----------5-----------5-----------8-----777777-8-7-5---|
>---8-----------7--------------------------------------------|
>verseB %=pause
>------------------------------------------------------------|
>----------------------------------------+-------------------|
>----*---------------------------------10-----9-----10-9-7---|
>--10------------#--#--#--#--*---------10-----9-----10-9-7---|
>--10-----------5-10--8--7--8-----------8-----7-%%%%-8-7-5---|
>---8-----------7--------------------------------------------|
:
# bridge #A
E---------------------------------------------------------|
B---------------------------------------------------------|
G---5------------555555555555-5------------------5--------|
D---5------------555555555555-5------------------5--------|
A---3------------333333333333-3------5-----4-----3--------|
E---------------------------------------------------------|
# bridge #B
E---------------------------------------------------------|
B---------------------------------------------------------|
G---------------------------------------------------------|
D---------------------------------------------------------|
A---3333535888888777875333333-3333535888888777875333333---|
E---------------------------------------------------------|
:
Then play AverseA or BverseB.
:
# bridge2 #A&B
E-------------|
B-------------|
G---5555555---|
D---5555555---|
A---3333333---|
E-------------|
:
# verse2 #A !play all notes X6! *=play once (Oh yeah...)
E---------------------------------------------------------------|
B---------------------------------------------------------------|
G---5-------7-------5-------7-------5-------7-------5--------*--|
D---5---5---7---3---5---5---7---3---5---5---7---3---5---5---3---|
A---3---5---5---3---3---5---5---3---3---5---5---3---3---5---3---|
E-------3-------1-------3-------1-------3-------1-------3---1---|
# verse2 #B !play all notes X6! *=play once
E---------------------------------------------------------------|
B---------------------------------------------------------------|
G---5-------7--10---5-------7--10---5-------7--10---5--------*--|
D---5---5---7--10---5---5---7--10---5---5---7--10---5---5---3---|
A---3---5---5---8---3---5---5---8---3---5---5---8---3---5---3---|
E-------3---------------3---------------3---------------3---1---|
:
# ska-outro #A *=play 8X #=play 4X
E---8-------------7------------10-------------8-----10---8--|
B---8-------------8------------10-------------8------8---8--|
G----*-------------*-------------*-------------#------#------|
D------------------------------------------------------------|
A------------------------------------------------------------|
E------------------------------------------------------------|
# ska-outro #B
E------------------------------------------------------------|
B---------------6-6-----------6-6-----------6-6----------5--|
G---------------5-7-----------5-7-----------7-5----------5--|
D------------------------------------------------------------|
A------------------------------------------------------------|
E------------------------------------------------------------|
:
Fuck that world, go fuck that right away....
Tabbed by Freddy Allen 04.08.2003.


Ваше мнение



Капча