Hey ,I'm new so bare with me,
standard tuning guys!
hard palm mute mostly triplets,
listen to the song to get the full effect,I'm still figuring out the
body and be back with the lyrics.....enjoy
--------------------------------|e
--------------------------------|b
--------------------------------|g
--2-2-2-2-----------------------|d
--3-3-3-3-----------------------|a
--------------------------------|e
---------------------------------|e
---------------------------------|b
---------------------------------|g
--555--5--333--3--222--2---------|d
--555--5--333--3--222--2---------|a
--333--3--111--1--000--0---------|e
------------------------------------------------|e
------------------------------------------------|b
------------------------------------------------|g
--3-3-3---3-5-3-2-3-2-0--555-5--333-3--222-2----|d
--5-5-5------------------555-5--333-3--222-2----|a
-------------------------333-3--111-1--000-0----|e
----------------------------------------------|e
----------------------------------------------|b
----------------------------------------------|g
-333-3--555-5--------------------------------|d
-333-3--555-5--------------------------------|a
-111-1--333-3--------------------------------|e
REPEAT IT ALL 5 TIMES I THINK.............I'll be back




Ваше мнение



Капча