Date: Mon, 14 Aug 1995 23:03:19 -0600 (MDT)
From: Jeff Mutt
Subject: Soulmate by NO USE FOR A NAME
SOULMATE
intro
e-|-------------------------------------------------------------------------
B-|-9-9-8-8-9-9-11-11-9-9-8-8-9-9-11-11-9-9-8-8-9-9-11-11-9-9-8-8-------8-8-
G-|---------------------------------------------------------------10-10-----
D-|-------------------------------------------------------------------------
A-|-------------------------------------------------------------------------
E-|-------------------------------------------------------------------------
repeat once...
verse:
e-|-------------------------
B-|-------------------------
G-|------------------------- you'll have to throw a whole lot of mutes
D-|-6-6-6-6-6-6-6-6-6-6-6-6- in there to get the rythym right...
A-|-6-6-6-6-6-6-6-6-6-6-6-6-
E-|-4-4-4-4-4-4-4-4-4-4-4-4-
more of the verse;
e-|---------------------------------
B-|---------------------------------
G-|-6-6-6-6-6-6-6-6-6-6-6-6-6-6-6-6-
D-|-6-6-6-6-6-6-6-6-6-6-6-6-6-6-6-6-
A-|-4-4-4-4-4-4-4-4-4-4-4-4-4-4-4-4-
E-|---------------------------------
more verse...
e-|----------------------------
B-|----------------------------
G-|-----11-6------6------6-5-3-
D-|-6-8-11-6-6-8--6--8-4-6-5-3-
A-|-6-8--9-4-6-8--4--8-4-4-3-1-
E-|-4-6------4-6-----6-2-------
i failed to tab out the rythym cause I'm tired and bored of doing this...
bridge....
e-|---------------------------
B-|---------------------------
G-|-----10-8--8-7--10-8-------
D-|-6-5-10-8--8-7--10-8-11-10-
A-|-6-5--8-6--6-5---8-6-11-10-
E-|-4-3------------------9--8-
and I'm still tired and bored so I didn't tab out the rythym again...
thats basically it...except the solo and the outro... but I'm not sure
bout the outro and I'm too tired to care right now...
transcribed by rambozo
[email protected]




Ваше мнение



Капча