SOULMATE por diego
INTRO
1
e-|------------------------------------------------------------------||----------------------------------------------------------------------|
B-|------------------------------------------------------------------||----------------------------------------------------------------------|
G-|------------------8------------------------------6----------------||------------------8------------------------------6--------------------|
D-|--6---------------8---------------3--------------6----------------||--6---------------8---------------3--------------6--------------------|
A-|--6---------------6---------------3--------------4----------------||--6---------------6---------------3--------------4--------------------|
E-|--4-------------------------------1-------------------------------||--4-------------------------------1-----------------------------------|
2
e-|------------------------------------------------------------------||----------------------------------------------------------------------|
B-|--9-9-8-8-9-9-10109-9-8-8-9-9-10109-9-8-8-9-9-10109-9-8-8-6-6-8-8-||--9-9-8-8-9-9-10109-9-8-8-9-9-10109-9-8-8-9-9-10109-9-8-8-6-6-8-8-(9)-|
G-|--x-x-x-x-x-x-x-x-x-x-x-x-x-x-x-x-x-x-x-x-x-x-x-x-x-x-x-x-x-x-x-x-||--x-x-x-x-x-x-x-x-x-x-x-x-x-x-x-x-x-x-x-x-x-x-x-x-x-x-x-x-x-x-x-x-(x)-|
D-|--6-6-5-5-6-6-8-8-6-6-5-5-6-6-8-8-6-6-5-5-6-6-8-8-6-6-5-5-3-3-5-5-||--6-6-5-5-6-6-8-8-6-6-5-5-6-6-8-8-6-6-5-5-6-6-8-8-6-6-5-5-3-3-5-5-(6)-|
A-|------------------------------------------------------------------||----------------------------------------------------------------------|
E-|------------------------------------------------------------------||----------------------------------------------------------------------|
VERSO
e-|-----------------------------------------------------|
B-|-----------------------------------------------------|
G-|---------888----666-----------888----6-6-6-6-6-6-6-6-|
D-|--666----888----666----666----888----6-6-6-6-6-6-6-6-|
A-|--666----666----444----666----666----4-4-4-4-4-4-4-4-|
E-|--444------------------444---------------------------|
|pm-----------------------------|
G# D# C#
monday morning you woke up crying the outcome of a stupid line oh-oh
G# D# C#
said by some punk-ass on the street
BRIDGE
e-|-----------------------------------------------------
B-|-----------------------------------------------------
G-|---------8-------------6--------8----6-6-6-6-6-6-6-6-
D-|--6------8------4------6----6---8----6-6-6-6-6-6-6-6-
A-|--6------6------4------4----6---6----4-4-4-4-4-4-4-4-
E-|--4-------------2-----------4------------------------
G# D# F# C#
it wasn't me, it wasn't you it wasn't anybody you knew is it
G# D# C#
your old friend insecurity?
POSTBRIDGE
e-|---------------------------
B-|---------------------------
G-|------------6---------(8)---
D-|--8----4----6----6----(8)---
A-|--8----4----4----6----(6)---
E-|--6----2---------4---------
A# F# C# G# (D#)
the one companion that stuck by your side since you were born
INTRO
VERSO
G# D# C#
tuesday night you were in a fight the same old argument black and white
G# D# C#
it's something that's eating your inside
BRIDGE
G# D# F# C#
it's not the food, it's not the booze it isn't anything consumed so is it
G# D# C#
becoming a problem you can't hide?
POSTBRIDGE
A# F# C# G# (D#)
and all those times you thought that you were wrong you were right
CORO
e-|--------------------------------------------------------------------------------------------
B-|--------------------------------------------------------------------------------------------
G-|--------------------------------8-8-8-8---------------------------------8-8-8-8---6-6-6-6/5-
D-|-6-6-6-6---5-5-5-5---3-3-3-3----8-8-8-8---6-6-6-6---5-5-5-5---3-3-3-3---8-8-8-8---6-6-6-6/5-
A-|-6-6-6-6---5-5-5-5---3-3-3-3----6-6-6-6---6-6-6-6---5-5-5-5---3-3-3-3---6-6-6-6---4-4-4-4/3-
E-|-4-4-4-4---3-3-3-3---1-1-1-1--------------4-4-4-4---3-3-3-3---1-1-1-1-----------------------
e-|-----------------------------------------------------------------------------------------
B-|-----------------------------------------------------------------------------------------
G-|-----------8-8-8-8---------------------------------6-6-6-6---5-5-5-5---9-9-9-9---8-8-8-8-
D-|-3-3-3-3---8-8-8-8---6-6-6-6---5-5-5-5---3-3-3-3---6-6-6-6---5-5-5-5---9-9-9-9---8-8-8-8-
A-|-3-3-3-3---6-6-6-6---6-6-6-6---5-5-5-5---3-3-3-3---4-4-4-4---3-3-3-3---7-7-7-7---6-6-6-6-
E-|-1-1-1-1-------------4-4-4-4---3-3-3-3---1-1-1-1-----------------------------------------
G# G F D# G# G
the devil on your shoulder gives you strenght in paranoia
F D# C# C
the countless times you called a few
F D# G# G
your best friend till the end of time they'll always be there by your side
F D# C# C
solidify conditions you've abused
Eii D#
what that means you'll never have a clue
SOLO
1
e-|---------------------------------------------------------------------------|---------------9----9-11-11^-9-------|
B-|-----------------------------------------9----9----9----9---8---8---8---8--|----9----11b-9---11------------11-9-|
G-|--------------------------------------10---10---10---10---8---8---8---8----|-10---10-----------------------------|
D-|-6-11-10-8-10-11-10-10-10h11p10-8-6-8--------------------------------------|-------------------------------------|
A-|---------------------------------------------------------------------------|-------------------------------------|
E-|---------------------------------------------------------------------------|-------------------------------------|
2
e-|----------------------------
B-|----------------------------
G-|---------8-------------6----
D-|--6------8------3------6----
A-|--6------6------3------4----
E-|--4-------------1-----------
VERSO
G# D# C#
more than just a life long friend no social life i guess we can pretend
G# D# C#
it's not like i care but anyway you always wanna leave,
BRIDGE
G# D# F# C#
you never wanna stay cause you think if you drink too much then you will lose it
G# D# C#
you'll drink your security away
POSTBRIDGE
A# F# C# G# (D#)
the one companion that stuck by your side since you were born
CORO
G# G F D# G# G
the little voice inside your head, annoying and confusing
F D# C# C
that somehow tells you what to do
F D# G# G
socially you've lost your mind and basically you're out of time
F D# C# C
you try to build so much it breaks on you
Eii D#
what that means you'll never have a clue
Eii D#
what that means you'll never have a clue
INTRO
Eii D#
what that means you'll never have a
Eii D#
what that means you'll never have a
Eii D# C# (G#)
what that means you'll never have a clue




Ваше мнение



Капча