------------------------------------------------------------
No Use For A Name - Sitting Duck SOLO (0:54-1:02)
------------------------------------------------------------
By: Kyle Argue

Hey All.

> = Slide

The Solo's pretty easy, but here it is:

Beat:& 2 & 3 & 4 & | 1 & 2 & 3 & 4 & | 1 & 2 & 3 & 4 & |
E|-----------------|-----------------|-----------------|
B|-8---------------|-----------------|-----------------|
G|------10-9-----7-|-------7-910-7---|-----------------|
D|-----------------|10---------------|-----------------|
A|-----------------|-----------------|-----------------|
E|-----------------|-----------------|-----------------|

Beat:& 2 & 3 & 4 & | 1 & 2 & 3 & 4 & | 1 & 2 & 3 & 4 & |
E|-----------------|-----------------|12------15--12>>>|
B|-----------------|-----------------|-----------------|
G|10---9-- 7---9---|-----------------|-----------------|
D|-----------------|10---------------|-----------------|
A|-----------------|-----------------|-----------------|
E|-----------------|-----------------|-----------------|

0:54-1:02




Ваше мнение



Капча