Song: Secret
Band: No Use For A Name
Album: Making Friends
tabbed by: Oly

* = play 8 times

VERSE
(x2)
G:---------------------------------------------------------------
D:---------------------------------------------------------------
A:----------------------------------------2*---------------------
E:-----2*--------------4*-----------------------------------2*---

CHORUS
G:---------------------------------------------------------------
D:--1*-----------------------------------------------------------
A:-------------------2*------------------------------------------
E:-------------------------------------2*------------4*----------

G:---------------------------------------------------------------
D:--1*-----------------------------------------------0-0-0-0-----
A:------------------2*-----------------------1-1-1-1-------------
E:----------------------------------2*---------------------------

G:---------------------------------------------------------------
D:--1*-----------------------------------------------------------
A:-------------------2*---------------------------------4*-------
E:----------------------------------2*---------------------------

G:---------------------------------------------------------------
D:---------------------------------------------------------------
A:---------------2*--1-1-1-1-------------------------------------
E:---------------------------4-4-4-4-----------------------------

VERSE 2 - same as first, except ends in:
G:---------------------------------------------------------------
D:---------------------------------------------------------------
A:---------------------------------------------------------------
E:--------------------------------2-2-2-2-1-1-1-1----------------

2nd CHORUS - same as first
BRIDGE
G:---------------------------------------------------------------
D:------------------------------------------0*-------1111--------
A:--2*-----------------4*---------------------------------4444---
E:---------------------------------------------------------------

G:---------------------------------------------------------------
D:---------------------------------------------1*----------------
A:--2*-----------------1*----------------------------------------
E:------------------------------------------------2222-1111------

G:---------------------------------------------------------------
D:--------------------------------------0*--------1111-----------
A:--2*-----------------4*------------------------------4444------
E:---------------------------------------------------------------

G:---------------------------------------------------------------
D:---------------------------------------------------------------
A:---------2*-----------------4*---------------------------------
E:------------------------------------------------2*-------------

3rd CHORUS - same as first and second
INSTRUMENTAL - bass comes in after geetars have played riff once
(x3)
G:---------------------------------------------------------------
D:--------1*-----------------------------------------------------
A:--2*-4*----1*-2*----2*-4*--------------------------------------
E:-----------------2*--------------------------------------------

end on:
G:---------------------------------------------------------------
D:---------------------------------------------------------------
A:-2-2-2---------------------------------------------------------
E:--------2------------------------------------------------------




Ваше мнение



Капча