Artist: No Use For A Name
Song: The Saddest Song
Tabbed By: Justin Beaubien
E-Mail: [email protected]
This is one of my favorite punk songs ever. It was sort of
difficult to tab because it sounds like there maybe two
guitars and I guessed some of the lyrics. It is also my first
tab, but it is mostly correct. Please Enjoy.
This is the awesome intro. For best sound use a slide.
Capo(1st Fret) Throughout Song
Intro (acoustic)
Guitar 1(Strumming)
Guitar 2(Slide all notes)
Guitar 1: Dm C G Bb
Guitar 2: e|---------------------------------------|
B|---------------------------------------|
G|-7--2--7--9--2--9--10--7--12--10--9----|
D|---------------------------------------|
A|---------------------------------------|
E|---------------------------------------|
Guitar 1: Dm C G Bb
Guitar 2: e|---------------------------------------|
B|---------------------------------------|
G|-10--7--9--2--7------------------------|
D|---------------------------------------|
A|---------------------------------------|
E|---------------------------------------|
Heavy Distortion
High E 12th
Riff 1:
D5 C5 G5 Bb5-C5 2x
Interlude
e|------------------------|
B|------------------------|
G|------------------------|
D|-3--3--5--7-------------|
A|-------------4--4--5--7-|
E|------------------------|
Verse 1
D5 Bb5 F5 E5
Whats wrong with everyone, theirs a panic in their eyes
C5 A5 Bb5 C5
Like others getting closer, aliens in disguise
D5 Bb5 F5 C5
They spell conspiricy on the lips of dearest friends
D5 Bb5 F5 A5
Reminds me of a time long ago, they think its the..
Chorus
Bb5 C5 A5 D5 C5
End of what we have created, used to love but now we hate it
A5 Bb5 C5
Life is acid(?) something's on my knees you see(?)
F5 E5 Bb5 Dd5
The Truth is a waste of time when were conditioned to understand
C5 Bb5 G5
Lives aren't the right way as we watch the
A5 Bb5
Blind leading the blind
Riff 1 2x
Repeat same guitar for Verse 2 and Chorus 2
(Sorry I'm Lazy)
Outro
D5 G5 C5 A5
Ahhhh......
Riff 1 1x
End Solo
D5 D5 Bb5 A5 (Phone Ringing Throughout)
E-Mail me if you actually figure out the solo. Thanx.




Ваше мнение



Капча