Room 19 - Transcribed by Chooka.
=======
Artist: No Use For A Name
Album: More Betterness
Song: Room 19
VERSE 1
It's been so long since you've been here, and I'm dying
C#m B E E
e|-4-4------------- --------------- --------------- -----------------|
B|-5-5------------- --------------- --------------- -----------------|
G|-6-6--6-6-6-6-6-6 4-4-4-4-4-4-4-4 1-1-1-1-1-1-1-1 1-1-1-1-1-1-1-1--|
D|-6-6--6-6-6-6-6-6 4-4-4-4-4-4-4-4 2-2-2-2-2-2-2-2 2-2-2-2-2-2-2-2--|
A|-4-4--4-4-4-4-4-4 2-2-2-2-2-2-2-2 2-2-2-2-2-2-2-2 2-2-2-2-2-2-2-2--|
E|-4-4------------- --------------- --------------- -----------------|
^ ^ ^ ^ ^ ^ ^ ^ ^ ^ ^ ^ ^ ^ ^ ^ ^ ^ ^ ^ ^ ^ ^ ^ ^ ^ ^ ^ ^ ^

Is there something you would like to say?
A A/G# F#m F#m A E
e|---------------- --------------- --------------- ---------X--0-----|
B|---------------- --------------- --------------- ---------2--0-----|
G|---------------- --------------- --------------- ---------2--1-----|
D|-7-7-7-7-7-7-7-7 6-6-6-6-6-6-6-6 4-4-4-4-4-4-4-4 4-4-4-4--2--2-----|
A|-7-7-7-7-7-7-7-7 7-7-7-7-7-7-7-7 4-4-4-4-4-4-4-4 4-4-4-4--0--2-----|
E|-5-5-5-5-5-5-5-5 4-4-4-4-4-4-4-4 2-2-2-2-2-2-2-2 2-2-2-2--X--0-----|
^ ^ ^ ^ ^ ^ ^ ^ ^ ^ ^ ^ ^ ^ ^ ^ ^ ^ ^ ^ ^ ^ ^ ^ ^ ^ ^ ^
VERSE 2
Just drop the present on the shelf, by the flowers
C#m B E E
e|---------------- --------------- --------------- ------------------|
B|---------------- --------------- --------------- ------------------|
G|-6-6-6-6-6-6-6-6 4-4-4-4-4-4-4-4 1-1-1-1-1-1-1-1 1-1-1-1-1-1-1-1---|
D|-6-6-6-6-6-6-6-6 4-4-4-4-4-4-4-4 2-2-2-2-2-2-2-2 2-2-2-2-2-2-2-2---|
A|-4-4-4-4-4-4-4-4 2-2-2-2-2-2-2-2 2-2-2-2-2-2-2-2 2-2-2-2-2-2-2-2---|
E|---------------- --------------- --------------- ------------------|
^ ^ ^ ^ ^ ^ ^ ^ ^ ^ ^ ^ ^ ^ ^ ^ ^ ^ ^ ^ ^ ^ ^ ^ ^ ^ ^ ^ ^ ^ ^ ^

And make the feeling go away
A E G# G# A E
e|----------------- --------------- --------------- ---------X--0----|
B|----------------- --------------- --------------- ---------2--0----|
G|----------------- 1-1-1-1-1-1-1-1 5-5-5-5-5-5-5-5 5-5-5-5--2--1----|
D|--7-7-7-7-7-7-7-7 2-2-2-2-2-2-2-2 6-6-6-6-6-6-6-6 6-6-6-6--2--2----|
A|--7-7-7-7-7-7-7-7 2-2-2-2-2-2-2-2 6-6-6-6-6-6-6-6 6-6-6-6--0--2----|
E|--5-5-5-5-5-5-5-5 --------------- 4-4-4-4-4-4-4-4 4-4-4-4--X--0----|
^ ^ ^ ^ ^ ^ ^ ^ ^ ^ ^ ^ ^ ^ ^ ^ ^ ^ ^ ^ ^ ^ ^ ^ ^ ^ ^ ^

VERSE 3

Looking back I can't recall, who was listening
C#m B E E
e|-4-4------------- --------------- --------------- -----------------|
B|-5-5------------- --------------- --------------- -----------------|
G|-6-6--6-6-6-6-6-6 4-4-4-4-4-4-4-4 1-1-1-1-1-1-1-1 1-1-1-1-1-1-1-1--|
D|-6-6--6-6-6-6-6-6 4-4-4-4-4-4-4-4 2-2-2-2-2-2-2-2 2-2-2-2-2-2-2-2--|
A|-4-4--4-4-4-4-4-4 2-2-2-2-2-2-2-2 2-2-2-2-2-2-2-2 2-2-2-2-2-2-2-2--|
E|-4-4------------- --------------- --------------- -----------------|
^ ^ ^ ^ ^ ^ ^ ^ ^ ^ ^ ^ ^ ^ ^ ^ ^ ^ ^ ^ ^ ^ ^ ^ ^ ^ ^ ^ ^ ^

When I used to walk the streets at night
A A/G# F#m F#m A E
e|---------------- --------------- --------------- ---------X--0-----|
B|---------------- --------------- --------------- ---------2--0-----|
G|---------------- --------------- --------------- ---------2--1-----|
D|-7-7-7-7-7-7-7-7 6-6-6-6-6-6-6-6 4-4-4-4-4-4-4-4 4-4-4-4--2--2-----|
A|-7-7-7-7-7-7-7-7 7-7-7-7-7-7-7-7 4-4-4-4-4-4-4-4 4-4-4-4--0--2-----|
E|-5-5-5-5-5-5-5-5 4-4-4-4-4-4-4-4 2-2-2-2-2-2-2-2 2-2-2-2--X--0-----|
^ ^ ^ ^ ^ ^ ^ ^ ^ ^ ^ ^ ^ ^ ^ ^ ^ ^ ^ ^ ^ ^ ^ ^ ^ ^ ^ ^

VERSE 4

Like a bird that used to sing, I was flying
C#m B E E
e|---------------- --------------- --------------- ------------------|
B|---------------- --------------- --------------- ------------------|
G|-6-6-6-6-6-6-6-6 4-4-4-4-4-4-4-4 1-1-1-1-1-1-1-1 1-1-1-1-1-1-1-1---|
D|-6-6-6-6-6-6-6-6 4-4-4-4-4-4-4-4 2-2-2-2-2-2-2-2 2-2-2-2-2-2-2-2---|
A|-4-4-4-4-4-4-4-4 2-2-2-2-2-2-2-2 2-2-2-2-2-2-2-2 2-2-2-2-2-2-2-2---|
E|---------------- --------------- --------------- ------------------|
^ ^ ^ ^ ^ ^ ^ ^ ^ ^ ^ ^ ^ ^ ^ ^ ^ ^ ^ ^ ^ ^ ^ ^ ^ ^ ^ ^ ^ ^ ^ ^

I was happy all the time, and it's hard to look back
A E G# A A
e|----------------- --------------- ------------- 5--5-5-5-5-5-5-5---|
B|----------------- --------------- ------------- 5--5-5-5-5-5-5-5---|
G|----------------- 1-1-1-1-1-1-1-1 5-5-5-5-5-5-5 6--6-6-6-6-6-6-6---|
D|--7-7-7-7-7-7-7-7 2-2-2-2-2-2-2-2 6-6-6-6-6-6-6 7--7-7-7-7-7-7-7---|
A|--7-7-7-7-7-7-7-7 2-2-2-2-2-2-2-2 6-6-6-6-6-6-6 7--7-7-7-7-7-7-7---|
E|--5-5-5-5-5-5-5-5 --------------- 4-4-4-4-4-4-4 5--5-5-5-5-5-5-5---|
^ ^ ^ ^ ^ ^ ^ ^ ^ ^ ^ ^ ^ ^ ^ ^ ^ ^ ^ ^ ^ ^ ^ :

CHORUS

Better days and different ways I can't explain
E B C#m C#m
e|--0-0-0-0-0-0-0-0 2-2-2-2-2-2-2-2 4-4-4-4-4-4-4-4 4-4-4-4-4-4-4-4---|
B|--0-0-0-0-0-0-0-0 4-4-4-4-4-4-4-4 5-5-5-5-5-5-5-5 5-5-5-5-5-5-5-5---|
G|--1-1-1-1-1-1-1-1 4-4-4-4-4-4-4-4 6-6-6-6-6-6-6-6 6-6-6-6-6-6-6-6---|
D|--2-2-2-2-2-2-2-2 4-4-4-4-4-4-4-4 6-6-6-6-6-6-6-6 6-6-6-6-6-6-6-6---|
A|--2-2-2-2-2-2-2-2 2-2-2-2-2-2-2-2 4-4-4-4-4-4-4-4 4-4-4-4-4-4-4-4---|
E|--0-0-0-0-0-0-0-0 2-2-2-2-2-2-2-2 4-4-4-4-4-4-4-4 4-4-4-4-4-4-4-4---|

Another song to sing it all was simplified
F#m F#m/E B B
e|--2-2-2-2-2-2-2-2 X-X-X-X-X-X-X-X 2-2-2-2-2-2-2-2 2-2-2-2-2-2-2-2---|
B|--2-2-2-2-2-2-2-2 X-X-X-X-X-X-X-X 4-4-4-4-4-4-4-4 4-4-4-4-4-4-4-4---|
G|--2-2-2-2-2-2-2-2 2-2-2-2-2-2-2-2 4-4-4-4-4-4-4-4 4-4-4-4-4-4-4-4---|
D|--4-4-4-4-4-4-4-4 4-4-4-4-4-4-4-4 4-4-4-4-4-4-4-4 4-4-4-4-4-4-4-4---|
A|--4-4-4-4-4-4-4-4 4-4-4-4-4-4-4-4 2-2-2-2-2-2-2-2 2-2-2-2-2-2-2-2---|
E|--2-2-2-2-2-2-2-2 0-0-0-0-0-0-0-0 2-2-2-2-2-2-2-2 2-2-2-2-2-2-2-2---|

Don't know what it's about, what have I learned to live without?
E B C#m C#m
e|--0-0-0-0-0-0-0-0 2-2-2-2-2-2-2-2 4-4-4-4-4-4-4-4 4-4-4-4-4-4-4-4---|
B|--0-0-0-0-0-0-0-0 4-4-4-4-4-4-4-4 5-5-5-5-5-5-5-5 5-5-5-5-5-5-5-5---|
G|--1-1-1-1-1-1-1-1 4-4-4-4-4-4-4-4 6-6-6-6-6-6-6-6 6-6-6-6-6-6-6-6---|
D|--2-2-2-2-2-2-2-2 4-4-4-4-4-4-4-4 6-6-6-6-6-6-6-6 6-6-6-6-6-6-6-6---|
A|--2-2-2-2-2-2-2-2 2-2-2-2-2-2-2-2 4-4-4-4-4-4-4-4 4-4-4-4-4-4-4-4---|
E|--0-0-0-0-0-0-0-0 2-2-2-2-2-2-2-2 4-4-4-4-4-4-4-4 4-4-4-4-4-4-4-4---|

It takes a day to live a life
F#m F#m/E D
e|--2-2-2-2-2-2-2-2 X-X-X-X-X-X-X-X 5-5-5-5-5-5-5-5---|
B|--2-2-2-2-2-2-2-2 X-X-X-X-X-X-X-X 7-7-7-7-7-7-7-7---|
G|--2-2-2-2-2-2-2-2 2-2-2-2-2-2-2-2 7-7-7-7-7-7-7-7---|
D|--4-4-4-4-4-4-4-4 4-4-4-4-4-4-4-4 7-7-7-7-7-7-7-7---|
A|--4-4-4-4-4-4-4-4 4-4-4-4-4-4-4-4 5-5-5-5-5-5-5-5---|
E|--2-2-2-2-2-2-2-2 0-0-0-0-0-0-0-0 5-5-5-5-5-5-5-5---| :

D D C# B
e|--5-5-5-5--5-----X-X-X-X-X-X-X-X-X-X-X-X---|
B|--7-7-7-7--7-----4-4-4-4-4-4-4-4-4-4-4-4---|
G|--7-7-7-7--7--6--4-4-4-4-4-4-4-4-4-4-4-4---|
D|--7-7-7-7--7--6--4-4-4-4-4-4-4-4-4-4-4-4---|
A|--5-5-5-5--5--4--2-2-2-2-2-2-2-2-2-2-2-2---|
E|--5-5-5-5--5--4--2-2-2-2-2-2-2-2-2-2-2-2---|

VERSE 5

I can't believe the way the world is so different
C#m B E E
e|-4------------- --------------- --------------- -----------------|
B|-5------------- --------------- --------------- -----------------|
G|-6--6-6-6-6-6-6 4-4-4-4-4-4-4-4 1-1-1-1-1-1-1-1 1-1-1-1-1-1-1-1--|
D|-6--6-6-6-6-6-6 4-4-4-4-4-4-4-4 2-2-2-2-2-2-2-2 2-2-2-2-2-2-2-2--|
A|-4--4-4-4-4-4-4 2-2-2-2-2-2-2-2 2-2-2-2-2-2-2-2 2-2-2-2-2-2-2-2--|
E|-4------------- --------------- --------------- -----------------|
^ ^ ^ ^ ^ ^ ^ ^ ^ ^ ^ ^ ^ ^ ^ ^ ^ ^ ^ ^ ^ ^ ^ ^ ^ ^ ^ ^ ^ ^

Look what the lines in my face have made
A A/G# F#m F#m A E
e|---------------- --------------- --------------- ---------X--0-----|
B|---------------- --------------- --------------- ---------2--0-----|
G|---------------- --------------- --------------- ---------2--1-----|
D|-7-7-7-7-7-7-7-7 6-6-6-6-6-6-6-6 4-4-4-4-4-4-4-4 4-4-4-4--2--2-----|
A|-7-7-7-7-7-7-7-7 7-7-7-7-7-7-7-7 4-4-4-4-4-4-4-4 4-4-4-4--0--2-----|
E|-5-5-5-5-5-5-5-5 4-4-4-4-4-4-4-4 2-2-2-2-2-2-2-2 2-2-2-2--X--0-----|
^ ^ ^ ^ ^ ^ ^ ^ ^ ^ ^ ^ ^ ^ ^ ^ ^ ^ ^ ^ ^ ^ ^ ^ ^ ^ ^ ^

VERSE 6

Living in my bed I'm right next to the road
C#m B E E
e|---------------- --------------- --------------- ------------------|
B|---------------- --------------- --------------- ------------------|
G|-6-6-6-6-6-6-6-6 4-4-4-4-4-4-4-4 1-1-1-1-1-1-1-1 1-1-1-1-1-1-1-1---|
D|-6-6-6-6-6-6-6-6 4-4-4-4-4-4-4-4 2-2-2-2-2-2-2-2 2-2-2-2-2-2-2-2---|
A|-4-4-4-4-4-4-4-4 2-2-2-2-2-2-2-2 2-2-2-2-2-2-2-2 2-2-2-2-2-2-2-2---|
E|---------------- --------------- --------------- ------------------|
^ ^ ^ ^ ^ ^ ^ ^ ^ ^ ^ ^ ^ ^ ^ ^ ^ ^ ^ ^ ^ ^ ^ ^ ^ ^ ^ ^ ^ ^ ^ ^

The one that goes the other way, takes me to a different place
A E G# A A
e|----------------- --------------- ------------- 5--5-5-5-5-5-5-5---|
B|----------------- --------------- ------------- 5--5-5-5-5-5-5-5---|
G|----------------- 1-1-1-1-1-1-1-1 5-5-5-5-5-5-5 6--6-6-6-6-6-6-6---|
D|--7-7-7-7-7-7-7-7 2-2-2-2-2-2-2-2 6-6-6-6-6-6-6 7--7-7-7-7-7-7-7---|
A|--7-7-7-7-7-7-7-7 2-2-2-2-2-2-2-2 6-6-6-6-6-6-6 7--7-7-7-7-7-7-7---|
E|--5-5-5-5-5-5-5-5 --------------- 4-4-4-4-4-4-4 5--5-5-5-5-5-5-5---|
^ ^ ^ ^ ^ ^ ^ ^ ^ ^ ^ ^ ^ ^ ^ ^ ^ ^ ^ ^ ^ ^ ^ :

CHORUS X2

Did you know, that I was just as young as you
E B C#m C#m
e|--0-0-0-0-0-0-0-0 2-2-2-2-2-2-2-2 4-4-4-4-4-4-4-4 4-4-4-4-4-4-4-4---|
B|--0-0-0-0-0-0-0-0 4-4-4-4-4-4-4-4 5-5-5-5-5-5-5-5 5-5-5-5-5-5-5-5---|
G|--1-1-1-1-1-1-1-1 4-4-4-4-4-4-4-4 6-6-6-6-6-6-6-6 6-6-6-6-6-6-6-6---|
D|--2-2-2-2-2-2-2-2 4-4-4-4-4-4-4-4 6-6-6-6-6-6-6-6 6-6-6-6-6-6-6-6---|
A|--2-2-2-2-2-2-2-2 2-2-2-2-2-2-2-2 4-4-4-4-4-4-4-4 4-4-4-4-4-4-4-4---|
E|--0-0-0-0-0-0-0-0 2-2-2-2-2-2-2-2 4-4-4-4-4-4-4-4 4-4-4-4-4-4-4-4---|

I had a job, a home, a family, and a car
F#m F#m/E B B
e|--2-2-2-2-2-2-2-2 X-X-X-X-X-X-X-X 2-2-2-2-2-2-2-2 2-2-2-2-2-2-2-2---|
B|--2-2-2-2-2-2-2-2 X-X-X-X-X-X-X-X 4-4-4-4-4-4-4-4 4-4-4-4-4-4-4-4---|
G|--2-2-2-2-2-2-2-2 2-2-2-2-2-2-2-2 4-4-4-4-4-4-4-4 4-4-4-4-4-4-4-4---|
D|--4-4-4-4-4-4-4-4 4-4-4-4-4-4-4-4 4-4-4-4-4-4-4-4 4-4-4-4-4-4-4-4---|
A|--4-4-4-4-4-4-4-4 4-4-4-4-4-4-4-4 2-2-2-2-2-2-2-2 2-2-2-2-2-2-2-2---|
E|--2-2-2-2-2-2-2-2 0-0-0-0-0-0-0-0 2-2-2-2-2-2-2-2 2-2-2-2-2-2-2-2---|

Did you say that yesterday or just right now?
E B C#m C#m
e|--0-0-0-0-0-0-0-0 2-2-2-2-2-2-2-2 4-4-4-4-4-4-4-4 4-4-4-4-4-4-4-4---|
B|--0-0-0-0-0-0-0-0 4-4-4-4-4-4-4-4 5-5-5-5-5-5-5-5 5-5-5-5-5-5-5-5---|
G|--1-1-1-1-1-1-1-1 4-4-4-4-4-4-4-4 6-6-6-6-6-6-6-6 6-6-6-6-6-6-6-6---|
D|--2-2-2-2-2-2-2-2 4-4-4-4-4-4-4-4 6-6-6-6-6-6-6-6 6-6-6-6-6-6-6-6---|
A|--2-2-2-2-2-2-2-2 2-2-2-2-2-2-2-2 4-4-4-4-4-4-4-4 4-4-4-4-4-4-4-4---|
E|--0-0-0-0-0-0-0-0 2-2-2-2-2-2-2-2 4-4-4-4-4-4-4-4 4-4-4-4-4-4-4-4---|

You'll never know the feeling of my bleeding heart
F#m F#m/E D
e|--2-2-2-2-2-2-2-2 X-X-X-X-X-X-X-X 5-5-5-5-5-5-5-5---|
B|--2-2-2-2-2-2-2-2 X-X-X-X-X-X-X-X 7-7-7-7-7-7-7-7---|
G|--2-2-2-2-2-2-2-2 2-2-2-2-2-2-2-2 7-7-7-7-7-7-7-7---|
D|--4-4-4-4-4-4-4-4 4-4-4-4-4-4-4-4 7-7-7-7-7-7-7-7---|
A|--4-4-4-4-4-4-4-4 4-4-4-4-4-4-4-4 5-5-5-5-5-5-5-5---|
E|--2-2-2-2-2-2-2-2 0-0-0-0-0-0-0-0 5-5-5-5-5-5-5-5---| :

D D C# B A A9 E
e|--5-5-5-5--5-----X-X-X-X-X-X-X-X-X-X-X-X--0--0--0---|
B|--7-7-7-7--7-----4-4-4-4-4-4-4-4-4-4-4-4--2--0--0---|
G|--7-7-7-7--7--6--4-4-4-4-4-4-4-4-4-4-4-4--2--2--1---|
D|--7-7-7-7--7--6--4-4-4-4-4-4-4-4-4-4-4-4--2--2--2---|
A|--5-5-5-5--5--4--2-2-2-2-2-2-2-2-2-2-2-2--X--X--2---|
E|--5-5-5-5--5--4--2-2-2-2-2-2-2-2-2-2-2-2--X--X--0---|

ENDING

Did you say that yesterday or just right now?
E B C#m C#m
e|--0-0-0-0-0-0-0-0 2-2-2-2-2-2-2-2 4-4-4-4-4-4-4-4 4-4-4-4-4-4-4-4---|
B|--0-0-0-0-0-0-0-0 4-4-4-4-4-4-4-4 5-5-5-5-5-5-5-5 5-5-5-5-5-5-5-5---|
G|--1-1-1-1-1-1-1-1 4-4-4-4-4-4-4-4 6-6-6-6-6-6-6-6 6-6-6-6-6-6-6-6---|
D|--2-2-2-2-2-2-2-2 4-4-4-4-4-4-4-4 6-6-6-6-6-6-6-6 6-6-6-6-6-6-6-6---|
A|--2-2-2-2-2-2-2-2 2-2-2-2-2-2-2-2 4-4-4-4-4-4-4-4 4-4-4-4-4-4-4-4---|
E|--0-0-0-0-0-0-0-0 2-2-2-2-2-2-2-2 4-4-4-4-4-4-4-4 4-4-4-4-4-4-4-4---|
^ ^ ^ ^ ^ ^ ^ ^ ^ ^ ^ ^ ^ ^ ^ ^ ^ ^ ^ ^ ^ ^ ^ ^ ^ ^ ^ ^ ^ ^ ^ ^

You'll never know the feeling of my bleeding heart
F#m A B E
e|--2-2-2-2-2-2-2-2 X-X-X-X 2-2-2-2 0----------------|
B|--2-2-2-2-2-2-2-2 2-2-2-2 4-4-4-4 0----------------|
G|--2-2-2-2-2-2-2-2 2-2-2-2 4-4-4-4 1----------------|
D|--4-4-4-4-4-4-4-4 2-2-2-2 4-4-4-4 2----------------|
A|--4-4-4-4-4-4-4-4 0-0-0-0 2-2-2-2 2----------------|
E|--2-2-2-2-2-2-2-2 X-X-X-X 2-2-2-2 0----------------|
^ ^ ^ ^ ^ ^ ^ ^ ^ ^ ^ ^ ^ ^ ^ ^ :

CHORDS USED
C#m 446654
B 224442
E 022100
D 557775
A 577655 and X0222X
G#m 466XXX
F#m 244XXX and 244222
G# 466544
A/G#m 476XXX
F#m/E 0442XX

Used Tab Symbols
^ = Palm
: = Let Ring

Tabbed by Chooka using Tab Player
Any comments/corrections,etc; please send to [email protected]
[email protected]+++++++++++++++++++
+ +
+ - Advice is what we ask for when we already know the answer but wish we didn't.- + +
+ +
++++++++++++++++++++++++++++++++++++++++++++++++++++++++++++++++++++++++++++++++++++




Ваше мнение



Капча