FTH80:G D A E ; Generated by Fast Tab, do not erase
====================
>From : Matt.Fritz
Artist : No Use For A Name
Bass Performance: Room 19
Strings: E ,A ,D ,G
INTRO/VERSES
G -------------------------------------------------------------------------------|
D -------------------------------------------------------------------------------|
A --4--4--4--4--4--4--4--4--2--2--2--2--2--2--2--2-------------------------------|
E --------------------------------------------------0--0--0--0--0--0--0--0--0--0-|
G ---------------------|
D ---------------------|
A ---------------------|
E --0--0--0--0--0--0---|
CHOURS
G -------------------------------------------------------------------------------|
D -------------------------------------------------------------------------------|
A -----2--2--2--2--2--2--2--2--4--4--4--4--4--4--4--4--6--6--6--6--6--6--6--6--6-|
E -------------------------------------------------------------------------------|
G ----------------------|
D ----------------------|
A --6--6--6--6--6--6--6-|
E ----------------------|




Ваше мнение



Капча